» » »

Saints, Messin With The Kid Tabs (ver.2)

Artists:  A B C D E F G H I J K L M N O P Q R S T U V W X Y Z # 

Messin With The Kid Tabs (ver.2)

Saints Tabs
Rating:
5/5 (2 votes)
Messin With The Kid lessons Tabs too difficult? Try these video lessons and learn fast
                Band: The Saints
70's Punk Legends from Australia The Saints, One Of There Softer Songs.

RIFF 'A'

E|--------------------------------------|
B|----3-------2h3p2-----3---------------|
G|------2---2-------------2-------------|
D|--2-----0-----------2---------------2-|
A|0-----------------0-------3-2-3-2-3---|
E|--------------------------------------|

RIFF 'B'

E|----2h3p2------------------------------|
B|--------------2h3p2-----3..------------|
G|------------2--------------------------|
D|--2-------0-----------2--------------2-|
A|0-------------------0-------3-2-3-2-3--|
E|---------------------------------------|

RIFF 'C'

  D         Dsus    D         Dsus
E|2-2-2-2-2-3-3-3--|2-2-2-2-2-3-3-3--|
B|3-3-3-3-3-3-3-3--|3-3-3-3-3-3-3-3--|
G|2-2-2-2-2-2-2-2--|2-2-2-2-2-2-2-2--|
D|0-0-0-0-0-0-0-0--|0-0-0-0-0-0-0-0--|
A|-----------------|-----------------|
E|-----------------|-----------------|

RIFF 'D'

  A         Asus    A         Asus
E|0-0-0-0-0-0-0-0--|0-0-0-0-0-0-0-0--|
B|2-2-2-2-2-3-3-3--|2-2-2-2-2-3-3-3--|
G|2-2-2-2-2-2-2-2--|2-2-2-2-2-2-2-2--|
D|2-2-2-2-2-2-2-2--|2-2-2-2-2-2-2-2--|
A|0-0-0-0-0-0-0-0--|0-0-0-0-0-0-0-0--|
E|-----------------|-----------------|
INTRO-
RIFF 'A' X 1
RIFF 'B' X 2
.........................
ALL VERSES RIFF 'B' X ?
.........................
CHORUS
RIFF 'C' & RIFF 'D' X ?
.........................
(LONG) OUTRO
RIFF 'C' & RIFF 'D' X ? {ADD RIFF 'A' or 'B' FOR EXTRA FLAIR}
.........................
wordz -
Messin' with the kid

It ain't too easy being a young man
going round in circles all of the time
you've played their game now for so long can't see
what in the world are they trying to do to me

CHORUS -Sometimes you get that old lost feeling
Sometimes it hits you when you're feeling down
It's that old feeling that brings you down
I say it makes you crawl, right up the nearest wall

You walk down the main street out in the city
see all the girls now they are so pretty
but all their smiling faces are just going to pass you by
it don't make no difference
no matter how hard you try..

CHORUS

(weird power chord like riff)
You been hanging around the alleys hanging around the bars looking for some
fun but there is none & there you are... looking for some action looking for
some fun but you are down in the gfutter & you don't get none no no there is
nothing left to do.....

CHORUS

How do you feel now that it's all over
your kid dreams all melted under the sun
just like a kid take a trip down to the sea
I am struck out in the middle
with nothing left to say

CHORUS

-------------------------------------------------------------------------------
            

comments powered by Disqus
↑ Back to top | Saints Tabs for Messin With The Kid. Lyrics for acoustic guitar and electric guitar. Tablatures and chords are parodies/interpretations of the original songs. You may use it for private study, scholarship, research or language learning purposes only