» » »

Leftovers Bass tabs (ver.1)

Artists:  A B C D E F G H I J K L M N O P Q R S T U V W X Y Z # 

Leftovers Bass tabs (ver.1)

Saints
Rating:
0/5 (0 votes)

Tabs too difficult? Try these video lessons and learn fast.
                STANDARD TUNING

Riff One
G----------------------------------------|
D------3-0-------------------------------|
A----------------------------------------| x1
E-3p2p1----0-0-0--0-0-0--0-0-0-/55555555-|

Riff Two
G--------------------------------------------------|
D----------------------3-0---------------------3-0-|
A--------------------------------------------------| x5
E-0-0-0-/55555555-3p2p1----88888888-0-0-0-3p2p1----|

Riff Three
G------------------------------------------|
D------------------------------------------|
A------------------------------------------| x4
E-0-0-0--0-0-0--0-0-0--1-1-1--1-1-1--1-1-1-|

Riff Four
G----------|
D------3-0-|
A----------| x2
E-3p2p1----|

Riff Five
G--------------------2-----------------------2---------|
D------3-0--------3-0-0-3-0----------3-0------0-3-0----|
A--------------7-0--------------5p4p3---5p4p3----------| x2
E-3p2p1---3-0-0------------3-0-0-----------------------|

Riff Six
G-2~------------|
D---0-3-0---3-0-|
A---------------| x4
E--------3-0----|
            
Tabs too difficult? Try these video lessons and learn fast.


comments powered by Disqus
↑ Back to top | Tablatures and chords are parodies/interpretations of the original songs. You may use it for private study, scholarship, research or language learning purposes only