» » »

Walker Tabs (ver.1)

Artists:  A B C D E F G H I J K L M N O P Q R S T U V W X Y Z # 

Walker Tabs (ver.1)

Saintins Son
Rating:
0/5 (0 votes)

Tabs too difficult? Try these video lessons and learn fast.
                
this is the first song we wrote we stayed up three nights writin it
it sucks now cuz we inproved alot




|------------------|
|------------------|
|------------------|
|-----9-------7----|
|---9-------7------|
|-7-----0-5-----0--|


|------------------|
|------------------|
|------------------|
|-----9-------7----|
|---9-------7------|
|-7-----0-5-----0--|


|----------------|
|----------------|
|----------------|
|----------------|
|-9--9-9--7-7-7--|
|-7--7-7--5-5-5--|


|------------|
|------------|
|------------|
|-7-7-7-7-7--|
|-7-7-7-7-7--|
|-5-5-5-5-5--|

--------------------------------------------------------------------------------
Legend
------

h = hammer-on; p = pull-off; b = bend; r = bend release; / = slide up/down; [5] = nat. harmonic; <5> = 
harmonic; ~ = vibrato; tr = trill; T = tap; TP = trem. picking; PM = palm muting; | = bar; || = double bar; 
= repeat start; *|| = repeat end; *| = double bar (end); : = bar (freetime); d = tremolo bar dive; u = tremolo bar up; = = hold (bend or tremolo bar)
--------------------------------------------------------------------------------
            
Tabs too difficult? Try these video lessons and learn fast.


comments powered by Disqus
↑ Back to top | Tablatures and chords are parodies/interpretations of the original songs. You may use it for private study, scholarship, research or language learning purposes only