» » »

Saintins Son, Town Tabs (ver.1)

Artists:  A B C D E F G H I J K L M N O P Q R S T U V W X Y Z # 

Town Tabs (ver.1)

Saintins Son Tabs
 Rating:
4/5 (4 votes)
Town lessons Tabs too difficult? Try these video lessons and learn fast
                

     Im' the bands lead guitarist and this translatin is the one i use
i gave a few lyrics to get you started...

Normal Tuning


(Main Riff)
|------------------------------------|
|------------------------------------|
|-----0-------2-0-----0------2-0tr1--|you can do w/ out the trill
|---2---0---2-------2------2---------|knowone will knoe the diffrence
|-3-------0-------3-----0------------|i leve it out some times becase
|------------------------------------|it is a b**ch tryin to get back to main riff
  the water tower is full to the top

|------------------------------------|
|------------------------------------|
|-----0-------2-0-----0------2-0tr1--|
|---2---0---2-------2------2---------|
|-3-------0-------3-----0------------|
|------------------------------------|
 and knowbody in the town to drink it

|------------------------------------|
|------------------------------------|
|-----0-------2-0-----0------2-0tr1--|
|---2---0---2-------2------2---------|
|-3-------0-------3-----0------------|
|------------------------------------|
  they all left because of a drout

|------------------------------------|
|------------------------------------|
|-----0-------2-0-----0------2-0tr1--|
|---2---0---2-------2------2---------|
|-3-------0-------3-----0------------|
|------------------------------------|


palm mute 2 times between every chord
(Chorus)
    PM PM PM PM PM PM
|--------------------|
|--------------------|
|-3--3--3------------|
|-3--3--3--3--3--3---|
|-1--1--1--3--3--3---|
|----------1--1--1---|
 i shold leve & go

    PM PM PM PM PM
|-------------------|
|-------------------|
|-3--3--3-----------|
|-3--3--3--3--3--3--|
|-1--1--1--3--3--3--|
|----------1--1--1--|
  some place else__

|-------------------|
|-------------------|
|-3--3--3-----------|
|-3--3--3--3--3--3--|
|-1--1--1--3--3--3--|
|----------1--1--1--|

--------------------------------------------------------------------------------
Legend
------

h = hammer-on; p = pull-off; b = bend; r = bend release; / = slide up/down; [5] = nat. harmonic; <5> = 
harmonic; ~ = vibrato; tr = trill; T = tap; TP = trem. picking; PM = palm muting; | = bar; || = double bar; 
= repeat start; *|| = repeat end; *| = double bar (end); : = bar (freetime); d = tremolo bar dive; u = tremolo bar up; = = hold (bend or tremolo bar)
--------------------------------------------------------------------------------
            
Submit corrections

comments powered by Disqus
↑ Back to top | Saintins Son Tabs for Town. Lyrics for acoustic guitar and electric guitar. Tablatures and chords are parodies/interpretations of the original songs. You may use it for private study, scholarship, research or language learning purposes only