» » »

Saintins Son, The Moon Tabs (ver.1)

Artists:  A B C D E F G H I J K L M N O P Q R S T U V W X Y Z # 

The Moon Tabs (ver.1)

Saintins Son Tabs
 Rating:
4/5 (4 votes)
The Moon lessons Tabs too difficult? Try these video lessons and learn fast
1
                

(normal Tuning)

          This song can be played boath clean or distorted
Have fun
             Enjoy!!!!!!!!!!!!!!!!!

|--------------------------|
|-------4-4----------------|
|-------4-4----------------|
|-2-2---4-4---4-4---2-2-2--|
|-2-2---2-2---4-4---2-2-2--|
|-0-0---------2-2---0-0-0--|
it takes awhile to see the moon glow bright and full

|--------------------------|
|-------4-4----------------|
|-------4-4----------------|
|-2-2---4-4---4-4---2-2-2--|
|-2-2---2-2---4-4---2-2-2--|
|-0-0---------2-2---0-0-0--|
when it is i stay up all night long

|--------------------------|
|-------4-4----------------|
|-------4-4----------------|
|-2-2---4-4---4-4---2-2-2--|   "you can add mutes affter
|-2-2---2-2---4-4---2-2-2--|    every 2 power chords"
|-0-0---------2-2---0-0-0--|


|--------------------------|
|-------4-4----------------|
|-------4-4----------------|
|-2-2---4-4---4-4---2-2-2--|
|-2-2---2-2---4-4---2-2-2--|
|-0-0---------2-2---0-0-0--|


--------------------------------------------------------------------------------
Legend
------

h = hammer-on; p = pull-off; b = bend; r = bend release; / = slide up/down; [5] = nat. harmonic; <5> = 
harmonic; ~ = vibrato; tr = trill; T = tap; TP = trem. picking; PM = palm muting; | = bar; || = double bar; 
= repeat start; *|| = repeat end; *| = double bar (end); : = bar (freetime); d = tremolo bar dive; u = tremolo bar up; = = hold (bend or tremolo bar)
--------------------------------------------------------------------------------
            
Submit corrections

comments powered by Disqus
↑ Back to top | Saintins Son Tabs for The Moon. Lyrics for acoustic guitar and electric guitar. 1 Tablatures and chords are parodies/interpretations of the original songs. You may use it for private study, scholarship, research or language learning purposes only