» » »

Possessed Thoughts Tabs (ver.2)

Artists:  A B C D E F G H I J K L M N O P Q R S T U V W X Y Z # 

Possessed Thoughts Tabs (ver.2)

Saintins Son
Rating:
0/5 (0 votes)

Tabs too difficult? Try these video lessons and learn fast.
                
this is the correct solo thanks!!!!!:::::::


1st solo

|----------------|
|----------------|
|-3-0-3-0-3-0-5--|
|----------------|
|----------------|
|----------------|

2ed solo
|----------------------------------------------------------------------|
|-------------------------------------------------------------------7--|
|-3-0-3-0-3-0-3-0-3-0---5-3-5-5-3-3-0-3-0-3-0-3-0-3-0-3-5-5-7-5-3-5-7--|
|---------------------3---------------------------------------------7--|
|-------------------------------------------------------------------7--|
|----------------------------------------------------------------------|

--------------------------------------------------------------------------------
Legend
------

h = hammer-on; p = pull-off; b = bend; r = bend release; / = slide up/down; [5] = nat. harmonic; <5> = 
harmonic; ~ = vibrato; tr = trill; T = tap; TP = trem. picking; PM = palm muting; | = bar; || = double bar; 
= repeat start; *|| = repeat end; *| = double bar (end); : = bar (freetime); d = tremolo bar dive; u = tremolo bar up; = = hold (bend or tremolo bar)
--------------------------------------------------------------------------------
            
Tabs too difficult? Try these video lessons and learn fast.




comments powered by Disqus
↑ Back to top | Tablatures and chords are parodies/interpretations of the original songs. You may use it for private study, scholarship, research or language learning purposes only