» » »

I Went Downtown Tabs (ver.1)

Artists:  A B C D E F G H I J K L M N O P Q R S T U V W X Y Z # 

I Went Downtown Tabs (ver.1)

Saintins Son
Rating:
0/5 (0 votes)

Hard to play? Try these video lessons and learn fast.
                
      this is the saintins son guitarist ane we play this song
idenical ta this so EnJoY!!!!!!!!


intro: repeat 4 times

|------------------------|
|------------------------|
|---------x-x-x----------|
|---2-----x-x-x-----2----|
|-2-0-5-2-x-x-x---2-0-5-2|
|-0---3-0-x-x-x---0---3-0|

Main Riff

|----------|
|----------|
|----------|
|----------|
|-2-7-5-2--| mute 4 times
|-0-5-3-0--|affter the last power chord in each


|----------|
|----------|
|----------|
|---2------|
|-2-0-5-2--|
|-0---3-0--|

play riffa 3x affter each verse
then go to riff B 1x affter riff a

     (a)             (B)
|----------|     |----------|
|----------|     |----------|
|----------|     |----------|
|----------|     |----------|
|-2-7-5-2--|     |-2-x-2-2--|
|-0-5-3-0--|     |-0-x-0-0--|

Outro: play this 4-5 times to end the song

|----------|
|----------|
|----------|
|---2------|
|-2-0-5-2--|
|-0---3-0--|


|----------|
|----------|
|----------|
|----------|
|-2-7-5-2--|
|-0-5-3-0--|

--------------------------------------------------------------------------------
Legend
------

h = hammer-on; p = pull-off; b = bend; r = bend release; / = slide up/down; [5] = nat. harmonic; <5> = 
harmonic; ~ = vibrato; tr = trill; T = tap; TP = trem. picking; PM = palm muting; | = bar; || = double bar; 
= repeat start; *|| = repeat end; *| = double bar (end); : = bar (freetime); d = tremolo bar dive; u = tremolo bar up; = = hold (bend or tremolo bar)
--------------------------------------------------------------------------------
            
Hard to play? Try these video lessons and learn fast. | Correct




comments powered by Disqus
↑ Back to top | Tablatures and chords are parodies/interpretations of the original songs. You may use it for private study, scholarship, research or language learning purposes only