» » »

Devils Road Tabs (ver.1)

Artists:  A B C D E F G H I J K L M N O P Q R S T U V W X Y Z # 

Devils Road Tabs (ver.1)

Saintins Son
Rating:
0/5 (0 votes)

Tabs too difficult? Try these video lessons and learn fast.
                

this is a cool song to and easy


guitar 1
|------------------------------|
|------------------------------|
|------------------------------|
|------------------------------|
|---2---2-------5---4----------|
|-0---0---0-0-3---2---2/8------|

guitar 2
|----------------------------|
|----------------------------|
|----------------------------|
|----------------------------|
|---2---2-------5---4---4----|
|-0---0---0-0-3---2---2------|

guitar 3
|------------------------------|
|------------------------------|
|------------------------------|
|------------------------------|
|---2---2-------5---4----------|
|-0---0---0-0-3---2---2/8------|

guitar 1
|----------------------------|
|----------------------------|
|----------------------------|
|----------------------------|
|-2-2--5-5-5--4-4-4--2--2-2--|
|-0-0--3-3-3--2-2-2--0--0-0--|

guitar 2
|---------------------------|
|---------------------------|
|---------------------------|
|---------------------------|
|-2-2--5-5-5--4-4---2--2-2--|
|-0-0--3-3-3--2-2---0--0-0--|


|----------------------------------|
|----------------------------------|
|----------------------------------|
|----------------------------------|
|-2-2--5-5-5--4-4--2--2-2-2-2-3-2--|
|-0-0--3-3-3--2-2--0--0-0-0-0-2-0--|

--------------------------------------------------------------------------------
Legend
------

h = hammer-on; p = pull-off; b = bend; r = bend release; / = slide up/down; [5] = nat. harmonic; <5> = 
harmonic; ~ = vibrato; tr = trill; T = tap; TP = trem. picking; PM = palm muting; | = bar; || = double bar; 
= repeat start; *|| = repeat end; *| = double bar (end); : = bar (freetime); d = tremolo bar dive; u = tremolo bar up; = = hold (bend or tremolo bar)
--------------------------------------------------------------------------------
            
Tabs too difficult? Try these video lessons and learn fast.




comments powered by Disqus
↑ Back to top | Tablatures and chords are parodies/interpretations of the original songs. You may use it for private study, scholarship, research or language learning purposes only