» » »

Saintins Son, Depression Tabs (ver.1)

Artists:  A B C D E F G H I J K L M N O P Q R S T U V W X Y Z # 

Depression Tabs (ver.1)

Saintins Son Tabs
 Rating:
4/5 (4 votes)
Depression lessons Tabs too difficult? Try these video lessons and learn fast
                

this is a real quick tab of depression but is acuret if u follow

intro: play 1 time distorted than go to clean

|----------------------|
|----------------------|
|----------------------|
|----------------------|
|----------------------|
|-5-x-x-3-x-1-1/3-3----|


|------------------------|
|------------------------|
|------------------------|
|------------------------|
|------------------------|
|-5-x-x-3-3-1-1-1/3-3-3--|


|----------------------|
|----------------------|
|----------------------|
|----------------------|
|----------------------|
|-5-x-x-3-3-1-1-1-3----|


|-----------------/-\/|
|-----------------/-\/|
|------------------/\/|slide all over the neck
|-----------------//\-|and go into the verse
|-------------5-7--/\/|
|-5-x-x-3-3-5-5-5-/-\/|

TO PLAY THE VERSE JUST PLAY THE INTRO IN POWER CHORDS
AND USE THE LOW E AS A ROOT NOTE PLAY THE VERSE IN DISTORTION

THANKS ENJOT!!!!!!!!!!!

--------------------------------------------------------------------------------
Legend
------

h = hammer-on; p = pull-off; b = bend; r = bend release; / = slide up/down; [5] = nat. harmonic; <5> = 
harmonic; ~ = vibrato; tr = trill; T = tap; TP = trem. picking; PM = palm muting; | = bar; || = double bar; 
= repeat start; *|| = repeat end; *| = double bar (end); : = bar (freetime); d = tremolo bar dive; u = tremolo bar up; = = hold (bend or tremolo bar)
--------------------------------------------------------------------------------
            
Submit corrections

comments powered by Disqus
↑ Back to top | Saintins Son Tabs for Depression. Lyrics for acoustic guitar and electric guitar. Tablatures and chords are parodies/interpretations of the original songs. You may use it for private study, scholarship, research or language learning purposes only