>
 >
What Do You Do

What Do You Do Guitar Tabs

Saigon Kick - What Do You Do chords, tabs, tablatures, lyrics

Guitar lessons | Add/correct | Request | Top 50 tabs Artists:  A B C D E F G H I J K L M N O P Q R S T U V W X Y Z 0-9

What Do You Do Guitar Tabs – Saigon Kick

CD, Sheet music, Poster

Do you like What Do You Do? Share with your friends now
Bass TabsTabs
-----------------------------------------------------------------------------
                       
-----------------------------------------------------------------------------

Tuning: Standard

=============================================================================

                             

Guitar



     W                   W                   W                 
E||-------------------|-------------------|-------------------|
B||-------------------|-------------------|-------------------|
G||-------------------|-------------------|-------------------|
D||-------------------|-------------------|-------------------|
A||-------------------|-------------------|-------------------|
E||-------------------|-------------------|-------------------|


  W                   W                   W                   W                 
-------------------|-------------------|-------------------|-------------------|
-------------------|-------------------|-------------------|-------------------|
-------------------|-------------------|-------------------|-------------------|
-------------------|-------------------|-------------------|-------------------|
-------------------|-------------------|-------------------|-------------------|
-------------------|-------------------|-------------------|-------------------|


  E  E  E  Q    E  Q       Q    Q    Q    Q       E  E  E  Q    E  Q     
------------------------|----------------------|------------------------|
------------------------|----------------------|------------------------|
--7--7--7--7------------|----------------------|--7--7--7--7------------|
--7--7--7--7------------|--5---------3---------|--7--7--7--7------------|
--5--5--5--5----5--5----|--3----3----1----2----|--5--5--5--5----5--5----|
----------------3--3----|-------1---------0----|----------------3--3----|


  Q    Q    Q    Q       E  E  E  Q    E  Q       Q    Q    Q    Q     
----------------------|------------------------|----------------------|
----------------------|------------------------|----------------------|
----------------------|--7--7--7--7------------|----------------------|
--5---------3---------|--7--7--7--7------------|--5---------3---------|
--3----3----1----2----|--5--5--5--5----5--5----|--3----3----1----2----|
-------1---------0----|----------------3--3----|-------1---------0----|


  E  E  E  Q    E  Q       Q    Q    Q    Q       W                 
------------------------|----------------------|-------------------|
------------------------|----------------------|-------------------|
--7--7--7--7------------|----------------------|-------------------|
--7--7--7--7------------|--5---------3---------|-------------------|
--5--5--5--5----5--5----|--3----3----1----2----|-------------------|
----------------3--3----|-------1---------0----|-------------------|


  W                   W                   W                   W                 
-------------------|-------------------|-------------------|-------------------|
-------------------|-------------------|-------------------|-------------------|
-------------------|-------------------|-------------------|-------------------|
-------------------|-------------------|-------------------|-------------------|
-------------------|-------------------|-------------------|-------------------|
-------------------|-------------------|-------------------|-------------------|


  W                   W                   W                 
-------------------|-------------------|-------------------|
-------------------|-------------------|-------------------|
-------------------|-------------------|-------------------|
-------------------|-------------------|-------------------|
-------------------|-------------------|-------------------|
-------------------|-------------------|-------------------|


  E  E  E  Q    E  Q       W                   E  E  E  Q    E  Q     
------------------------|-------------------|------------------------|
------------------------|-------------------|------------------------|
--7--7--7--7------------|-------------------|--7--7--7--7------------|
--7--7--7--7------------|-------------------|--7--7--7--7------------|
--5--5--5--5------------|-------------------|--5--5--5--5------------|
------------------------|-------------------|------------------------|


  W                   E  E  E  Q    E  Q       W                 
-------------------|------------------------|-------------------|
-------------------|------------------------|-------------------|
-------------------|--7--7--7--7------------|-------------------|
-------------------|--7--7--7--7------------|-------------------|
-------------------|--5--5--5--5------------|-------------------|
-------------------|------------------------|-------------------|


  E  E  E  Q    E  Q       W                   E  E  E  Q    E  Q     
------------------------|-------------------|------------------------|
------------------------|-------------------|------------------------|
--7--7--7--7------------|-------------------|--7--7--7--7------------|
--7--7--7--7------------|-------------------|--7--7--7--7------------|
--5--5--5--5------------|-------------------|--5--5--5--5----5--5----|
------------------------|-------------------|----------------3--3----|


  Q    Q    Q    Q       E  E  E  Q    E  Q       Q    Q    Q    Q     
----------------------|------------------------|----------------------|
----------------------|------------------------|----------------------|
----------------------|--7--7--7--7------------|----------------------|
--5---------3---------|--7--7--7--7------------|--5---------3---------|
--3----3----1----2----|--5--5--5--5----5--5----|--3----3----1----2----|
-------1---------0----|----------------3--3----|-------1---------0----|


  E  E  E  Q    E  Q       Q    Q    Q    Q       E  E  E  Q    E  Q     
------------------------|----------------------|------------------------|
------------------------|----------------------|------------------------|
--7--7--7--7------------|----------------------|--7--7--7--7------------|
--7--7--7--7------------|--5---------3---------|--7--7--7--7------------|
--5--5--5--5----5--5----|--3----3----1----2----|--5--5--5--5----5--5----|
----------------3--3----|-------1---------0----|----------------3--3----|


  Q    Q    Q    Q       W                   W                 
----------------------|-------------------|-------------------|
----------------------|-------------------|-------------------|
--5-------------------|-------------------|-------------------|
--5---------3---------|-------------------|-------------------|
--3----3----1----2----|-------------------|-------------------|
-------1---------0----|-------------------|-------------------|


  W                   W                   W                   W                 
-------------------|-------------------|-------------------|-------------------|
-------------------|-------------------|-------------------|-------------------|
-------------------|-------------------|-------------------|-------------------|
-------------------|-------------------|-------------------|-------------------|
-------------------|-------------------|-------------------|-------------------|
-------------------|-------------------|-------------------|-------------------|


  W                   W                   W                   W                 
-------------------|-------------------|-------------------|-------------------|
-------------------|-------------------|-------------------|-------------------|
-------------------|-------------------|-------------------|-------------------|
-------------------|-------------------|-------------------|-------------------|
-------------------|-------------------|-------------------|-------------------|
-------------------|-------------------|-------------------|-------------------|


  W                   W                   E  E  E  Q    E  Q     
-------------------|-------------------|------------------------|
-------------------|-------------------|------------------------|
-------------------|-------------------|--7--7--7--7------------|
-------------------|-------------------|--7--7--7--7------------|
-------------------|-------------------|--5--5--5--5------------|
-------------------|-------------------|------------------------|


  W                   E  E  E  Q    E  Q       W                 
-------------------|------------------------|-------------------|
-------------------|------------------------|-------------------|
-------------------|--7--7--7--7------------|-------------------|
-------------------|--7--7--7--7------------|-------------------|
-------------------|--5--5--5--5------------|-------------------|
-------------------|------------------------|-------------------|


  E  E  E  Q    E  Q       W                   E  E  E  Q    E  Q     
------------------------|-------------------|------------------------|
------------------------|-------------------|------------------------|
--7--7--7--7------------|-------------------|--7--7--7--7------------|
--7--7--7--7------------|-------------------|--7--7--7--7------------|
--5--5--5--5------------|-------------------|--5--5--5--5------------|
------------------------|-------------------|------------------------|


  W                   E  E  E  Q    E  Q       Q    Q    Q    Q     
-------------------|------------------------|----------------------|
-------------------|------------------------|----------------------|
-------------------|--7--7--7--7------------|----------------------|
-------------------|--7--7--7--7------------|--5---------3---------|
-------------------|--5--5--5--5----5--5----|--3----3----1----2----|
-------------------|----------------3--3----|-------1---------0----|


  E  E  E  Q    E  Q       Q    Q    Q    Q       E  E  E  Q    E  Q     
------------------------|----------------------|------------------------|
------------------------|----------------------|------------------------|
--7--7--7--7------------|----------------------|--7--7--7--7------------|
--7--7--7--7------------|--5---------3---------|--7--7--7--7------------|
--5--5--5--5----5--5----|--3----3----1----2----|--5--5--5--5----5--5----|
----------------3--3----|-------1---------0----|----------------3--3----|


  Q    Q    Q    Q       E  E  E  Q    E  Q       Q    Q    Q    Q     
----------------------|------------------------|----------------------|
----------------------|------------------------|----------------------|
----------------------|--7--7--7--7------------|--5-------------------|
--5---------3---------|--7--7--7--7------------|--5---------3---------|
--3----3----1----2----|--5--5--5--5----5--5----|--3----3----1----2----|
-------1---------0----|----------------3--3----|-------1---------0----|


  Q    Q    E.  S E  E     Q    Q    E.  S E  E     Q    Q    E.  S E  E   
------------------------|------------------------|------------------------|
------------------------|------------------------|------------------------|
--7----7----7---7-7--7--|--7----7----7---7-7--7--|--7----7----7---7-7--7--|
--7----7----7---7-7--7--|--7----7----7---7-7--7--|--7----7----7---7-7--7--|
--5----5----5---5-5--5--|--5----5----5---5-5--5--|--5----5----5---5-5--5--|
------------------------|------------------------|------------------------|


  Q    Q    E.  S E  E     Q.      Q.     Q       E   Q.     Q     Q     
------------------------|----------------------|------------------------|
------------------------|---------10------9----|--L--10------9----10----|
--7----7----7---7-7-----|--7-------------------|------------------------|
--7----7----7---7-7--7--|----------------------|------------------------|
--5----5----5---5-5-----|----------------------|------------------------|
------------------------|----------------------|------------------------|


  Q.      Q.     Q       E   Q.     Q     Q       Q.      Q.     Q     
----------------------|------------------------|----------------------|
---------10------9----|--L--10------9----10----|---------10------9----|
--7-------------------|------------------------|--7-------------------|
----------------------|------------------------|----------------------|
----------------------|------------------------|----------------------|
----------------------|------------------------|----------------------|


  E   Q.     Q     Q       Q.     Q.     Q       E  Q.     Q.     E    
------------------------|---------------------|-----------------------|
--L--10------9----10----|---------------------|-----------------------|
------------------------|--7------6------5----|--L--4------3------3\--|
------------------------|---------------------|-----------------------|
------------------------|--5------4------3----|--L--2------1------1\--|
------------------------|---------------------|-----------------------|


  W                   W                   W                   W                 
-------------------|-------------------|-------------------|-------------------|
-------------------|-------------------|-------------------|-------------------|
-------------------|-------------------|-------------------|-------------------|
-------------------|-------------------|-------------------|-------------------|
-------------------|-------------------|-------------------|-------------------|
-------------------|-------------------|-------------------|-------------------|


  W                   W                   W                   W                 
-------------------|-------------------|-------------------|-------------------|
-------------------|-------------------|-------------------|-------------------|
-------------------|-------------------|-------------------|-------------------|
-------------------|-------------------|-------------------|-------------------|
-------------------|-------------------|-------------------|-------------------|
-------------------|-------------------|-------------------|-------------------|


  E  E  E  Q    E  Q       W                   E  E  E  Q    E  Q     
------------------------|-------------------|------------------------|
------------------------|-------------------|------------------------|
--7--7--7--7------------|-------------------|--7--7--7--7------------|
--7--7--7--7------------|-------------------|--7--7--7--7------------|
--5--5--5--5------------|-------------------|--5--5--5--5------------|
------------------------|-------------------|------------------------|


  W                   E  E  E  Q    E  Q       W                 
-------------------|------------------------|-------------------|
-------------------|------------------------|-------------------|
-------------------|--7--7--7--7------------|-------------------|
-------------------|--7--7--7--7------------|-------------------|
-------------------|--5--5--5--5------------|-------------------|
-------------------|------------------------|-------------------|


  E  E  E  Q    E  Q       W                   E  E  E  Q    E  Q     
------------------------|-------------------|------------------------|
------------------------|-------------------|------------------------|
--7--7--7--7------------|-------------------|--7--7--7--7------------|
--7--7--7--7------------|-------------------|--7--7--7--7------------|
--5--5--5--5------------|-------------------|--5--5--5--5----5--5----|
------------------------|-------------------|----------------3--3----|


  Q    Q    Q    Q       E  E  E  Q    E  Q       Q    Q    Q    Q     
----------------------|------------------------|----------------------|
----------------------|------------------------|----------------------|
----------------------|--7--7--7--7------------|----------------------|
--5---------3---------|--7--7--7--7------------|--5---------3---------|
--3----3----1----2----|--5--5--5--5----5--5----|--3----3----1----2----|
-------1---------0----|----------------3--3----|-------1---------0----|


  E  E  E  Q    E  Q       Q    Q    Q    Q       E  E  E  Q    E  Q     
------------------------|----------------------|------------------------|
------------------------|----------------------|------------------------|
--7--7--7--7------------|----------------------|--7--7--7--7------------|
--7--7--7--7------------|--5---------3---------|--7--7--7--7------------|
--5--5--5--5----5--5----|--3----3----1----2----|--5--5--5--5----5--5----|
----------------3--3----|-------1---------0----|----------------3--3----|


  Q    Q    Q    Q       E  E  E  Q    E  Q       Q    Q    Q    Q     
----------------------|------------------------|----------------------|
----------------------|------------------------|----------------------|
--5-------------------|--7--7--7--7------------|----------------------|
--5---------3---------|--7--7--7--7------------|--5---------3---------|
--3----3----1----2----|--5--5--5--5----5--5----|--3----3----1----2----|
-------1---------0----|----------------3--3----|-------1---------0----|


  E  E  E  Q    E  Q       Q    Q    Q    Q       E  E  E  Q    E  Q     
------------------------|----------------------|------------------------|
------------------------|----------------------|------------------------|
--7--7--7--7------------|--5-------------------|--7--7--7--7------------|
--7--7--7--7------------|--5---------3---------|--7--7--7--7------------|
--5--5--5--5----5--5----|--3----3----1----2----|--5--5--5--5----5--5----|
----------------3--3----|-------1---------0----|----------------3--3----|


  Q    Q    Q    Q       E  E  E  Q    E  Q       Q    Q    Q    Q     
----------------------|------------------------|----------------------|
----------------------|------------------------|----------------------|
----------------------|--7--7--7--7------------|--5-------------------|
--5---------3---------|--7--7--7--7------------|--5---------3---------|
--3----3----1----2----|--5--5--5--5----5--5----|--3----3----1----2----|
-------1---------0----|----------------3--3----|-------1---------0----|


  E  E  E  Q.     Q       
------------------------||
------------------------||
--7--7--7--7------L\----||
--7--7--7--7------L\----||
--5--5--5--5------L\----||
------------------------||




Duration Legend
---------------
W - whole
H - half
Q - quarter
E - 8th
S - 16th
T - 32nd
X - 64th
. - note dotted
|-n-|  - n-tuplets


Tablature Legend
----------------
L - tied note
x - dead note
g - grace note
(n) - ghost note
> - accentuded note
NH - natural harmonic
AH - artificial harmonic
TH - tapped harmonic
SH - semi harmonic
PH - pitch harmonic
h - hammer on
p - pull off
b - bend
br - bendRelease
pb - preBend
pbr - preBendRelease
brb - bendReleaseBend
\n/ - tremolo bar dip
\n - tremolo bar dive
-/n - tremolo bar Release up
/n\ - tremolo bar inverted dip
/n - tremolo bar return
-\n - tremolo bar Release down
S - shift slide
s - legato slide
/ -  slide into from below or out of upwards
\ -  slide into from above or out of downwards
~ - vibrato
W - wide vibrato
tr - trill
TP - tremolo picking
T - tapping
S - slap
P - pop
< - fade in
^ - brush up
v - brush down





Comments


Popular Saigon Kick tabs & chords
Hostile Youth Bass Tabs
What You Say Bass Tabs
All I Want Chords
Sergeant Steve Chords
All I Want Tabs
Hostile Youth 1 Tabs
I Love You 1 Tabs
Sleep Tabs
Fields Of Rape Ukulele
Sergeant Steve Ukulele


Song lyrics



↑ Back to top | Tablatures and chords are parodies/interpretations of the original songs. You may use it for private study, scholarship, research or language learning purposes only
© 2014 AZChords.com Contact us | Privacy policy | DMCA | Add/correct tabs | Request tabs | Top 50 tabs