» » »

Saigon Kick, What Do You Do Bass tabs (ver.1)

Artists:  A B C D E F G H I J K L M N O P Q R S T U V W X Y Z # 

What Do You Do Bass tabs (ver.1)

Saigon Kick Tabs
 Rating:
4/5 (4 votes)
What Do You Do lessons Tabs too difficult? Try these video lessons and learn fast
                -----------------------------------------------------------------------------
                       
-----------------------------------------------------------------------------

Tuning: Standard

=============================================================================

                              

Bass



     E  E  E  Q    E  Q       Q    Q    Q    Q       E  E  E  Q    E  Q     
G||------------------------|----------------------|------------------------|
D||------------------------|----------------------|------------------------|
A||--5--5--5--5------------|--3---------1---------|--5--5--5--5------------|
E||----------------3--3----|-------1---------0----|----------------3--3----|


  Q    Q    Q    Q       E  E  E  Q    E  Q       Q    Q    Q    Q     
----------------------|------------------------|----------------------|
----------------------|------------------------|----------------------|
--3---------1---------|--5--5--5--5------------|--3---------1---------|
-------1---------0----|----------------3--3----|-------1---------0----|


  E  E  E  Q    E  Q       E  E  E  Q    E  Q       Q    Q    Q    Q     
------------------------|------------------------|----------------------|
------------------------|------------------------|----------------------|
--5--5--5--5------------|--5--5--5--5------------|--3---------1---------|
------------------------|----------------3--3----|-------1---------0----|


  E  E  E  Q    E  Q       Q    Q    Q    Q       E  E  E  Q    E  Q     
------------------------|----------------------|------------------------|
------------------------|----------------------|------------------------|
--5--5--5--5------------|--3---------1---------|--5--5--5--5------------|
----------------3--3----|-------1---------0----|----------------3--3----|


  Q    Q    Q    Q       E  E  E  Q    E  Q       Q    Q    Q    Q     
----------------------|------------------------|----------------------|
----------------------|------------------------|----------------------|
--3---------1---------|--5--5--5--5------------|--3---------1---------|
-------1---------0----|----------------3--3----|-------1---------0----|


  E  E  E  Q    E  Q       Q    Q    Q    Q       E  E  E  Q    E  Q     
------------------------|----------------------|------------------------|
------------------------|----------------------|------------------------|
--5--5--5--5------------|--3---------1---------|--5--5--5--5------------|
----------------3--3----|-------1---------0----|----------------3--3----|


  Q    Q    Q    Q       E  E  E  Q    E  Q       Q    Q    Q    Q     
----------------------|------------------------|----------------------|
----------------------|------------------------|----------------------|
--3---------1---------|--5--5--5--5------------|--3---------1---------|
-------1---------0----|----------------3--3----|-------1---------0----|


  E  E  E  Q    E  Q       Q    Q    Q    Q       E  E  E  Q    E  Q     
------------------------|----------------------|------------------------|
------------------------|----------------------|------------------------|
--5--5--5--5------------|--3---------1---------|--5--5--5--5------------|
----------------3--3----|-------1---------0----|----------------3--3----|


  Q    Q    Q    Q       E  E  E  Q    E  Q       Q    Q    Q    Q     
----------------------|------------------------|----------------------|
----------------------|------------------------|----------------------|
--3---------1---------|--5--5--5--5------------|--3---------1---------|
-------1---------0----|----------------3--3----|-------1---------0----|


  E  E  E  Q    E  Q       Q    Q    Q    Q       E  E  E  Q    E  Q     
------------------------|----------------------|------------------------|
------------------------|----------------------|------------------------|
--5--5--5--5------------|--3---------1---------|--5--5--5--5------------|
----------------3--3----|-------1---------0----|----------------3--3----|


  Q    Q    Q    Q       E  E  E  Q    E  Q       Q    Q    Q    Q     
----------------------|------------------------|----------------------|
----------------------|------------------------|----------------------|
--3---------1---------|--5--5--5--5------------|--3---------1---------|
-------1---------0----|----------------3--3----|-------1---------0----|


  E  E  E  Q    E  Q       Q    Q    Q    Q       E  E  E  Q    E  Q     
------------------------|----------------------|------------------------|
------------------------|----------------------|------------------------|
--5--5--5--5------------|--3---------1---------|--5--5--5--5------------|
----------------3--3----|-------1---------0----|----------------3--3----|


  Q    Q    Q    Q       E  E  E  Q    E  Q       Q    Q    Q    Q     
----------------------|------------------------|----------------------|
----------------------|------------------------|----------------------|
--3---------1---------|--5--5--5--5------------|--3---------1---------|
-------1---------0----|----------------3--3----|-------1---------0----|


  E  E  E  Q    E  Q       Q    Q    Q    Q       E  E  E  Q    E  Q     
------------------------|----------------------|------------------------|
------------------------|----------------------|------------------------|
--5--5--5--5------------|--3---------1---------|--5--5--5--5------------|
----------------3--3----|-------1---------0----|----------------3--3----|


  Q    Q    Q    Q       E  E  E  Q    E  Q       Q    Q    Q    Q     
----------------------|------------------------|----------------------|
----------------------|------------------------|----------------------|
--3---------1---------|--5--5--5--5------------|--3---------1---------|
-------1---------0----|----------------3--3----|-------1---------0----|


  E  E  E  Q    E  Q       Q    Q    Q    Q       E  E  E  Q    E  Q     
------------------------|----------------------|------------------------|
------------------------|----------------------|------------------------|
--5--5--5--5------------|--3---------1---------|--5--5--5--5------------|
----------------3--3----|-------1---------0----|----------------3--3----|


  Q    Q    Q    Q       E  E  E  Q    E  Q       Q    Q    Q    Q     
----------------------|------------------------|----------------------|
----------------------|------------------------|----------------------|
--3---------1---------|--5--5--5--5------------|--3---------1---------|
-------1---------0----|----------------3--3----|-------1---------0----|


  E  E  E  Q    E  Q       Q    Q    Q    Q       E  E  E  Q    E  Q     
------------------------|----------------------|------------------------|
------------------------|----------------------|------------------------|
--5--5--5--5------------|--3---------1---------|--5--5--5--5------------|
----------------3--3----|-------1---------0----|----------------3--3----|


  Q    Q    Q    Q       E  E  E  Q    E  Q       Q    Q    Q    Q     
----------------------|------------------------|----------------------|
----------------------|------------------------|----------------------|
--3---------1---------|--5--5--5--5------------|--3---------1---------|
-------1---------0----|----------------3--3----|-------1---------0----|


  E  E  E  Q    E  Q       Q    Q    Q    Q       E  E  E  Q    E  Q     
------------------------|----------------------|------------------------|
------------------------|----------------------|------------------------|
--5--5--5--5------------|--3---------1---------|--5--5--5--5------------|
----------------3--3----|-------1---------0----|----------------3--3----|


  Q    Q    Q    Q       E  E  E  Q    E  Q       Q    Q    Q    Q     
----------------------|------------------------|----------------------|
----------------------|------------------------|----------------------|
--3---------1---------|--5--5--5--5------------|--3---------1---------|
-------1---------0----|----------------3--3----|-------1---------0----|


  E  E  E  Q    E  Q       Q    Q    Q    Q       E  E  E  Q    E  Q     
------------------------|----------------------|------------------------|
------------------------|----------------------|------------------------|
--5--5--5--5------------|--3---------1---------|--5--5--5--5------------|
----------------3--3----|-------1---------0----|----------------3--3----|


  Q    Q    Q    Q       E  E  Q    E.  S E  E     E  E  Q    E.  S E  E   
----------------------|-------------------------|-------------------------|
----------------------|-------------------------|-------------------------|
--3---------1---------|--5--5--5----5---0-5--0--|--5--5--5----5---0-5--0--|
-------1---------0----|-------------------------|-------------------------|


  E  E  Q    E.  S E  E     E  E  Q    E.  S E  E     E  E  Q    E.  S E  E   
-------------------------|-------------------------|-------------------------|
-------------------------|-------------------------|-------------------------|
--5--5--5----5---0-5--0--|--5--5--5----5---0-5--0--|--5--5--5----5---0-5--0--|
-------------------------|-------------------------|-------------------------|


  E  E  Q    E.  S E  E     E  E  Q    E.  S E  E     E  E  Q    E.  S E  E   
-------------------------|-------------------------|-------------------------|
-------------------------|-------------------------|-------------------------|
--5--5--5----5---0-5--0--|--5--5--5----5---0-5--0--|--5--5--5----5---0-5--0--|
-------------------------|-------------------------|-------------------------|


  E  E  Q    E.  S E  E     E  E  Q    E.  S E  E     E  E  Q    E.  S E  E   
-------------------------|-------------------------|-------------------------|
-------------------------|-------------------------|-------------------------|
--5--5--5----5---0-5--0--|--5--5--5----5---0-5--0--|--5--5--5----5---0-5--0--|
-------------------------|-------------------------|-------------------------|


  E  E  Q    E.  S E  E     E  E  E  Q    E  Q       Q    Q    Q    Q     
-------------------------|------------------------|----------------------|
-------------------------|------------------------|----------------------|
--5--5--5----5---0-5--0--|--5--5--5--5------------|--3---------1---------|
-------------------------|----------------3--3----|-------1---------0----|


  E  E  E  Q    E  Q       Q    Q    Q    Q       E  E  E  Q    E  Q     
------------------------|----------------------|------------------------|
------------------------|----------------------|------------------------|
--5--5--5--5------------|--3---------1---------|--5--5--5--5------------|
----------------3--3----|-------1---------0----|----------------3--3----|


  Q    Q    Q    Q       E  E  E  Q    E  Q       Q    Q    Q    Q     
----------------------|------------------------|----------------------|
----------------------|------------------------|----------------------|
--3---------1---------|--5--5--5--5------------|--3---------1---------|
-------1---------0----|----------------3--3----|-------1---------0----|


  E  E  E  Q    E  Q       Q    Q    Q    Q       E  E  E  Q    E  Q     
------------------------|----------------------|------------------------|
------------------------|----------------------|------------------------|
--5--5--5--5------------|--3---------1---------|--5--5--5--5------------|
----------------3--3----|-------1---------0----|----------------3--3----|


  Q    Q    Q    Q       E  E  E  Q    E  Q       Q    Q    Q    Q     
----------------------|------------------------|----------------------|
----------------------|------------------------|----------------------|
--3---------1---------|--5--5--5--5------------|--3---------1---------|
-------1---------0----|----------------3--3----|-------1---------0----|


  E  E  E  Q    E  Q       Q    Q    Q    Q       E  E  E  Q    E  Q     
------------------------|----------------------|------------------------|
------------------------|----------------------|------------------------|
--5--5--5--5------------|--3---------1---------|--5--5--5--5------------|
----------------3--3----|-------1---------0----|----------------3--3----|


  Q    Q    Q    Q       E  E  E  Q    E  Q       Q    Q    Q    Q     
----------------------|------------------------|----------------------|
----------------------|------------------------|----------------------|
--3---------1---------|--5--5--5--5------------|--3---------1---------|
-------1---------0----|----------------3--3----|-------1---------0----|


  E  E  E  Q    E  Q       Q    Q    Q    Q       E  E  E  Q    E  Q     
------------------------|----------------------|------------------------|
------------------------|----------------------|------------------------|
--5--5--5--5------------|--3---------1---------|--5--5--5--5------------|
----------------3--3----|-------1---------0----|----------------3--3----|


  Q    Q    Q    Q       E  E  E  Q    E  Q       Q    Q    Q    Q     
----------------------|------------------------|----------------------|
----------------------|------------------------|----------------------|
--3---------1---------|--5--5--5--5------------|--3---------1---------|
-------1---------0----|----------------3--3----|-------1---------0----|


  E  E  E  Q    E  Q       Q    Q    Q    Q       E  E  E  Q    E  Q     
------------------------|----------------------|------------------------|
------------------------|----------------------|------------------------|
--5--5--5--5------------|--3---------1---------|--5--5--5--5------------|
----------------3--3----|-------1---------0----|----------------3--3----|


  Q    Q    Q    Q       E  E  E  Q    E  Q       Q    Q    Q    Q     
----------------------|------------------------|----------------------|
----------------------|------------------------|----------------------|
--3---------1---------|--5--5--5--5------------|--3---------1---------|
-------1---------0----|----------------3--3----|-------1---------0----|


  E  E  E  Q.     Q       
------------------------||
------------------------||
--5--5--5--5------L\----||
------------------------||




Duration Legend
---------------
W - whole
H - half
Q - quarter
E - 8th
S - 16th
T - 32nd
X - 64th
. - note dotted
|-n-|  - n-tuplets


Tablature Legend
----------------
L - tied note
x - dead note
g - grace note
(n) - ghost note
> - accentuded note
NH - natural harmonic
AH - artificial harmonic
TH - tapped harmonic
SH - semi harmonic
PH - pitch harmonic
h - hammer on
p - pull off
b - bend
br - bendRelease
pb - preBend
pbr - preBendRelease
brb - bendReleaseBend
\n/ - tremolo bar dip
\n - tremolo bar dive
-/n - tremolo bar Release up
/n\ - tremolo bar inverted dip
/n - tremolo bar return
-\n - tremolo bar Release down
S - shift slide
s - legato slide
/ -  slide into from below or out of upwards
\ -  slide into from above or out of downwards
~ - vibrato
W - wide vibrato
tr - trill
TP - tremolo picking
T - tapping
S - slap
P - pop
< - fade in
^ - brush up
v - brush down
            
Submit corrections

comments powered by Disqus
↑ Back to top | Saigon Kick Bass for What Do You Do. Lyrics for acoustic guitar and electric guitar. Tablatures and chords are parodies/interpretations of the original songs. You may use it for private study, scholarship, research or language learning purposes only