>
 >
Suzy

Suzy Bass Tabs

Saigon Kick - Suzy chords, tabs, tablatures, lyrics

Guitar lessons | Add/correct | Request | Top 50 tabs Artists:  A B C D E F G H I J K L M N O P Q R S T U V W X Y Z 0-9

Suzy Bass Tabs – Saigon Kick

CD, Sheet music, Poster

Do you like Suzy? Share with your friends now
Bass TabsTabs
-----------------------------------------------------------------------------
		                  
            
-----------------------------------------------------------------------------


Tuning: standard tuning

=============================================================================

Bass



     E   S  S S S S S S S E   S  E  S    E   S  S S S S S S S S  S Q     
G||-----------------------------------|---------------------------------|
D||-----------x-x-x-x-x-------------x-|-----------x-x-x-x-x-------------|
A||-----------------------------------|---------------------------------|
E||--1b--2p-0-----------0-1b--2p-0----|--1b--2p-0-----------0-1b-2-5----|


  E   S  S S S S S S S E   S  E  S    E   S  S S S S S S S S  S Q     
-----------------------------------|---------------------------------|
-----------x-x-x-x-x-------------x-|-----------x-x-x-x-x-------------|
-----------------------------------|---------------------------------|
--1b--2p-0-----------0-1b--2p-0----|--1b--2p-0-----------0-1b-2-5----|


  E   S  S S S S S S S E   S  E  S    E   S  S S S S S S S S  S Q     
-----------------------------------|---------------------------------|
-----------x-x-x-x-x-------------x-|-----------x-x-x-x-x-------------|
-----------------------------------|---------------------------------|
--1b--2p-0-----------0-1b--2p-0----|--1b--2p-0-----------0-1b-2-5----|


  E   S  S S S S S S S E   S  E  S    E   S  S S S S S S S S  S Q     
-----------------------------------|---------------------------------|
-----------x-x-x-x-x-------------x-|-----------x-x-x-x-x-------------|
-----------------------------------|---------------------------------|
--1b--2p-0-----------0-1b--2p-0----|--1b--2p-0-----------0-1b-2-5----|


  E  S  S S S S S S S E  S  E  S    E  S  S S S S S S S S S Q     
---------------------------------|-------------------------------|
----------x-x-x-x-x------------x-|----------x-x-x-x-x------------|
---------------------------------|-------------------------------|
--2--2p-0-----------0-2--2p-0----|--2--2p-0-----------0-2-2-5----|


  E  S  S S S S S S S E  S  E  S    E  S  S S S S S S S S S Q     
---------------------------------|-------------------------------|
----------x-x-x-x-x------------x-|----------x-x-x-x-x------------|
---------------------------------|-------------------------------|
--2--2p-0-----------0-2--2p-0----|--2--2p-0-----------0-2-2-5----|


  E  S  S S S S S S S E  S  E  S    E  S  S S S S S S S S S Q     
---------------------------------|-------------------------------|
----------x-x-x-x-x------------x-|----------x-x-x-x-x------------|
---------------------------------|-------------------------------|
--2--2p-0-----------0-2--2p-0----|--2--2p-0-----------0-2-2-5----|


  E  S  S S S S S S S E  S  E  S    E  S  S S S S S S S S S Q     
---------------------------------|-------------------------------|
----------x-x-x-x-x------------x-|----------x-x-x-x-x------------|
---------------------------------|-------------------------------|
--2--2p-0-----------0-2--2p-0----|--2--2p-0-----------0-2-2-5----|


  E  S  S S S S S S S E  S  E  S    E  S  S S S S S S S S S Q     
---------------------------------|-------------------------------|
----------x-x-x-x-x------------x-|----------x-x-x-x-x------------|
---------------------------------|-------------------------------|
--2--2p-0-----------0-2--2p-0----|--2--2p-0-----------0-2-2-5----|


  E  S  S S S S S S S E  S  E  S    E  S  S S S S S S S S S Q     
---------------------------------|-------------------------------|
----------x-x-x-x-x------------x-|----------x-x-x-x-x------------|
---------------------------------|-------------------------------|
--2--2p-0-----------0-2--2p-0----|--2--2p-0-----------0-2-2-5----|


  E  S  S S S S S S S E  S  E  S    E  S  S S S S S S S S S Q     
---------------------------------|-------------------------------|
----------x-x-x-x-x------------x-|----------x-x-x-x-x------------|
---------------------------------|-------------------------------|
--2--2p-0-----------0-2--2p-0----|--2--2p-0-----------0-2-2-5----|


  E  S  S S S S S S S E  S  E  S    E  S  S S S S S S S S S Q     
---------------------------------|-------------------------------|
----------x-x-x-x-x------------x-|----------x-x-x-x-x------------|
---------------------------------|-------------------------------|
--2--2p-0-----------0-2--2p-0----|--2--2p-0-----------0-2-2-5----|


  E  E  E  E  E  E  E  E     E  E  E  E  E  E  E  E   
--------------------------|--------------------------|
--------------------------|--------------------------|
--2--2--2--2--2--2--2--2--|--2--2--2--2--2--2--2--2--|
--------------------------|--------------------------|


  E  E  E  E  E  E  E  E     E  E  E  E  E  E  E  E   
--------------------------|--------------------------|
--------------------------|--------------------------|
--------------------------|--------------------------|
--2--2--2--2--2--2--2--2--|--2--2--2--2--2--2--2--2--|


  E  E  E  E  E  E  E  E     E  E  E  E  E  E  E  E   
--------------------------|--------------------------|
--------------------------|--------------------------|
--2--2--2--2--2--2--2--2--|--2--2--2--2--2--2--2--2--|
--------------------------|--------------------------|


  E  E  E  E  E  E  E  E     S S  S S S  S E  S S  S S Q     
--------------------------|---------------------------------|
--------------------------|---------------------------------|
--4--4--4--4--4--4--4--4--|---------0------4--3-2p-0-2------|
--------------------------|--0-1h-2---2p-0-------------5----|


  E  S  S S S S S S S E  S  E  S    E  S  S S S S S S S S S Q     
---------------------------------|-------------------------------|
----------x-x-x-x-x------------x-|----------x-x-x-x-x------------|
---------------------------------|-------------------------------|
--2--2p-0-----------0-2--2p-0----|--2--2p-0-----------0-2-2-5----|


  E  S  S S S S S S S E  S  E  S    E  S  S S S S S S S S S Q     
---------------------------------|-------------------------------|
----------x-x-x-x-x------------x-|----------x-x-x-x-x------------|
---------------------------------|-------------------------------|
--2--2p-0-----------0-2--2p-0----|--2--2p-0-----------0-2-2-5----|


  E  S  S S S S S S S E  S  E  S    E  S  S S S S S S S S S Q     
---------------------------------|-------------------------------|
----------x-x-x-x-x------------x-|----------x-x-x-x-x------------|
---------------------------------|-------------------------------|
--2--2p-0-----------0-2--2p-0----|--2--2p-0-----------0-2-2-5----|


  E  S  S S S S S S S E  S  E  S    E  S  S S S S S S S S S Q     
---------------------------------|-------------------------------|
----------x-x-x-x-x------------x-|----------x-x-x-x-x------------|
---------------------------------|-------------------------------|
--2--2p-0-----------0-2--2p-0----|--2--2p-0-----------0-2-2-5----|


  E  E  E  E  E  E  E  E     E  E  E  E  E  E  E  E   
--------------------------|--------------------------|
--------------------------|--------------------------|
--2--2--2--2--2--2--2--2--|--2--2--2--2--2--2--2--2--|
--------------------------|--------------------------|


  E  E  E  E  E  E  E  E     E  E  E  E  E  E  E  E   
--------------------------|--------------------------|
--------------------------|--------------------------|
--------------------------|--------------------------|
--2--2--2--2--2--2--2--2--|--2--2--2--2--2--2--2--2--|


  E  E  E  E  E  E  E  E     E  E  E  E  E  E  S S  S  S  
--------------------------|------------------------------|
--------------------------|------------------------------|
--2--2--2--2--2--2--2--2--|--2--2--2--2--2--2--2-2s-3s-4-|
--------------------------|------------------------------|


  E  E  E  E  E  E  E  E     E  H        Q    E   
--------------------------|----------------------|
--------------------------|----------------------|
--4--4--4--4--4--4--4--4--|--4-------------------|
--------------------------|----------------------|


  E  S  S S S S S S S E  S  E  S    E  S  S S S S S S S S S Q     
---------------------------------|-------------------------------|
----------x-x-x-x-x------------x-|----------x-x-x-x-x------------|
---------------------------------|-------------------------------|
--2--2p-0-----------0-2--2p-0----|--2--2p-0-----------0-2-2-5----|


  E  S  S S S S S S S E  S  E  S    E  S  S S S S S S S S S Q     
---------------------------------|-------------------------------|
----------x-x-x-x-x------------x-|----------x-x-x-x-x------------|
---------------------------------|-------------------------------|
--2--2p-0-----------0-2--2p-0----|--2--2p-0-----------0-2-2-5----|


  E  S  S S S S S S S E  S  E  S    E  S  S S S S S S S S S Q     
---------------------------------|-------------------------------|
----------x-x-x-x-x------------x-|----------x-x-x-x-x------------|
---------------------------------|-------------------------------|
--2--2p-0-----------0-2--2p-0----|--2--2p-0-----------0-2-2-5----|


  E  S  S S S S S S S E  S  E  S    E  S  S S S S S S S S S Q     
---------------------------------|-------------------------------|
----------x-x-x-x-x------------x-|----------x-x-x-x-x------------|
---------------------------------|-------------------------------|
--2--2p-0-----------0-2--2p-0----|--2--2p-0-----------0-2-2-5----|


  E  E  E  E  E  E  E  E     E  E  E  E  E  E  E  E   
--------------------------|--------------------------|
--------------------------|--------------------------|
--2--2--2--2--2--2--2--2--|--2--2--2--2--2--2--2--2--|
--------------------------|--------------------------|


  E  E  E  E  E  E  E  E     E  E  E  E  E  E  E  E   
--------------------------|--------------------------|
--------------------------|--------------------------|
--------------------------|--------------------------|
--2--2--2--2--2--2--2--2--|--2--2--2--2--2--2--2--2--|


  E  E  E  E  E  E  E  E     E  E  E  E  E  E  S S  S  S  
--------------------------|------------------------------|
--------------------------|------------------------------|
--2--2--2--2--2--2--2--2--|--2--2--2--2--2--2--2-2s-3s-4-|
--------------------------|------------------------------|


  E  E  E  E  E  E  E  E     S S  S S S  S E  S S  S S S S S S  
--------------------------|------------------------------------|
--------------------------|--------------------------------2---|
--4--4--4--4--4--4--4--4--|---------0------4--3-2p-0-2-3-4---4-|
--------------------------|--0-1h-2---2p-0---------------------|


  S S S S S S S S Q       E  S  S S S S S S S E  S  E  S  
-----------------------|---------------------------------|
------4-3-2------------|----------x-x-x-x-x------------x-|
--3-2-------4-3-2------|---------------------------------|
------------------5----|--2--2p-0-----------0-2--2p-0----|


  E  S  S S S S S S S S S Q       E  S  S S S S S S S E  S  E  S  
-------------------------------|---------------------------------|
----------x-x-x-x-x------------|----------x-x-x-x-x------------x-|
-------------------------------|---------------------------------|
--2--2p-0-----------0-2-2-5----|--2--2p-0-----------0-2--2p-0----|


  E  S  S S S S S S S S S Q       E  E  E  E  E  E  E  E   
-------------------------------|--------------------------|
----------x-x-x-x-x------------|--------------------------|
-------------------------------|--2--2--2--2--2--2--2--2--|
--2--2p-0-----------0-2-2-5----|--------------------------|


  E  E  E  E  E  E  E  E     E  E  E  E  E  E  E  E   
--------------------------|--------------------------|
--------------------------|--------------------------|
--2--2--2--2--2--2--2--2--|--------------------------|
--------------------------|--2--2--2--2--2--2--2--2--|


  E  E  E  E  E  E  E  E     E  E  E  E  E  E  E  E   
--------------------------|--------------------------|
--------------------------|--------------------------|
--------------------------|--2--2--2--2--2--2--2--2--|
--2--2--2--2--2--2--2--2--|--------------------------|


  E  E  E  E  E  E  S S  S  S    E  E  E  E  E  E  E  E   
------------------------------|--------------------------|
------------------------------|--------------------------|
--2--2--2--2--2--2--2-2s-3s-4-|--4--4--4--4--4--4--4--4--|
------------------------------|--------------------------|


  S S  S S S  S E  S S  S S Q       E  S  S S S S S S S E  S  E  S  
---------------------------------|---------------------------------|
---------------------------------|----------x-x-x-x-x------------x-|
---------0------4--3-2p-0-2------|---------------------------------|
--0-1h-2---2p-0-------------5----|--2--2p-0-----------0-2--2p-0----|


  E  S  S S S S S S S S S Q       E  S  S S S S S S S E  S  E  S  
-------------------------------|---------------------------------|
----------x-x-x-x-x------------|----------x-x-x-x-x------------x-|
-------------------------------|---------------------------------|
--2--2p-0-----------0-2-2-5----|--2--2p-0-----------0-2--2p-0----|


  E  S  S S S S S S S S S Q       E  S  S S S S S S S E  S  E  S  
-------------------------------|---------------------------------|
----------x-x-x-x-x------------|----------x-x-x-x-x------------x-|
-------------------------------|---------------------------------|
--2--2p-0-----------0-2-2-5----|--2--2p-0-----------0-2--2p-0----|


  E  S  S S S S S S S S S Q       E  S  S S S S S S S E  S  E  S  
-------------------------------|---------------------------------|
----------x-x-x-x-x------------|----------x-x-x-x-x------------x-|
-------------------------------|---------------------------------|
--2--2p-0-----------0-2-2-5----|--2--2p-0-----------0-2--2p-0----|


  E  S  S S S S S S S S S Q       E  S  S S S S S S S E  S  E  S  
-------------------------------|---------------------------------|
----------x-x-x-x-x------------|----------x-x-x-x-x------------x-|
-------------------------------|---------------------------------|
--2--2p-0-----------0-2-2-5----|--2--2p-0-----------0-2--2p-0----|


  E  S  S S S S S S S S S Q       E  S  S S S S S S S E  S  E  S  
-------------------------------|---------------------------------|
----------x-x-x-x-x------------|----------x-x-x-x-x------------x-|
-------------------------------|---------------------------------|
--2--2p-0-----------0-2-2-5----|--2--2p-0-----------0-2--2p-0----|


  E  S  S S S S S S S S S Q      
-------------------------------||
----------x-x-x-x-x------------||
-------------------------------||
--2--2p-0-----------0-2-2-5----||




Duration Legend
---------------
W - whole
H - half
Q - quarter
E - 8th
S - 16th
T - 32nd
X - 64th
. - note dotted
|-n-|  - n-tuplets


Tablature Legend
----------------
L - tied note
x - dead note
g - grace note
(n) - ghost note
> - accentuded note
NH - natural harmonic
AH - artificial harmonic
TH - tapped harmonic
SH - semi harmonic
PH - pitch harmonic
h - hammer on
p - pull off
b - bend
br - bendRelease
pb - preBend
pbr - preBendRelease
brb - bendReleaseBend
\n/ - tremolo bar dip
\n - tremolo bar dive
-/n - tremolo bar Release up
/n\ - tremolo bar inverted dip
/n - tremolo bar return
-\n - tremolo bar Release down
S - shift slide
s - legato slide
/ -  slide into from below or out of upwards
\ -  slide into from above or out of downwards
~ - vibrato
W - wide vibrato
tr - trill
TP - tremolo picking
T - tapping
S - slap
P - pop
< - fade in
^ - brush up
v - brush down





Comments


Popular Saigon Kick tabs & chords
Chanel Bass Tabs
Hostile Youth Bass Tabs
I Love You Bass Tabs
All I Want Tabs
Colors Tabs
Come Take Me Now Tabs
Fields Of Rape Tabs
My Life Tabs
All I Want Ukulele
Sergeant Steve Ukulele


Song lyrics



↑ Back to top | Tablatures and chords are parodies/interpretations of the original songs. You may use it for private study, scholarship, research or language learning purposes only
© 2014 AZChords.com Contact us | Privacy policy | DMCA | Add/correct tabs | Request tabs | Top 50 tabs