» » »

Saigon Kick, Sleep Tabs (ver.1)

Artists:  A B C D E F G H I J K L M N O P Q R S T U V W X Y Z # 

Sleep Tabs (ver.1)

Saigon Kick Tabs
 Rating:
4/5 (4 votes)
Sleep lessons Tabs too difficult? Try these video lessons and learn fast
1
                -----------------------------------------------------------------------------
                       
-----------------------------------------------------------------------------

Tuning: Standard

=============================================================================

Guitar



               E.  S E.  S E.  S E.  S    E.  S E.  S E.  S E.  S  
E||-------||---------------------------|--------------------------|
B||-------||---7---7-7---7-7---7-7---7-|--8---8-8---8-8---8-8---8-|
G||-------||*--------------------------|--------------------------|
D||-------||*--------------------------|--------------------------|
A||-------||---5---5-5---5-5---5-5---5-|--5---5-5---5-5---5-5---5-|
E||-------||---------------------------|--------------------------|


  E.  S E.  S E.  S E.  S    E.  S E.  S E.  S E.  S  
--------------------------|--------------------------|
--7---7-7---7-7---7-7---7-|--5---5-5---5-5---5-5---5-|
--------------------------|--------------------------|
--------------------------|--------------------------|
--4---4-4---4-4---4-4---4-|--4---4-4---4-4---4-4---4-|
--------------------------|--------------------------|


  E.  S E.  S E.  S E.  S    E.  S E.  S E.  S E.  S  
--------------------------|--------------------------|
--5---5-5---5-5---5-5---5-|--6---6-6---6-6---6-6---6-|
--------------------------|--------------------------|
--------------------------|--------------------------|
--3---3-3---3-3---3-3---3-|--3---3-3---3-3---3-3---3-|
--------------------------|--------------------------|


  E.  S E.  S E.  S E.  S    E.  S E.  S E.  S E.  S  
--------------------------|--------------------------|
--5---5-5---5-5---5-5---5-|--4---4-4---4-4---4-4---4-|
--------------------------|--------------------------|
--------------------------|--------------------------|
--2---2-2---2-2---2-2---2-|--2---2-2---2-2---2-2---2-|
--------------------------|--------------------------|


  E.  S E.  S E.  S E.  S    E.  S E.  S E.  S E.  S  
--------------------------|--------------------------|
--3---3-3---3-3---3-3---3-|--5---5-5---5-5---5-5---5-|
--------------------------|--------------------------|
--------------------------|--------------------------|
--------------------------|--------------------------|
--3---3-3---3-3---3-3---3-|--5---5-5---5-5---5-5---5-|


  E.  S E.  S E.  S E.  S    E.  S E.  S E.  S E.  S  
--------------------------|--------------------------|
--7---7-8---8-7---7-5---5-|--7---7-8---8-7---7-5---5-|
--------------------------|--------------------------|
--------------------------|--------------------------|
--5---5-5---5-5---5-5---5-|--5---5-5---5-5---5-5---5-|
--------------------------|--------------------------|


  E.  S E.  S E.  S E.  S    E.  S E.  S E.  S E.  S  
--------------------------|--------------------------|
--3---3-3---3-3---3-3---3-|--5---5-5---5-5---5-5---5-|
--------------------------|--------------------------|
--------------------------|--------------------------|
--------------------------|--------------------------|
--3---3-3---3-3---3-3---3-|--5---5-5---5-5---5-5---5-|


  E.  S E.  S E.  S E.  S    E.  S E.  S E.  S E.  S    
--------------------------|---------------------------||
--7---7-7---7-7---7-7---7-|--7---7-7---7-7---7-7---7--||
--------------------------|--------------------------*||
--------------------------|--------------------------*||
--5---5-5---5-5---5-5---5-|--5---5-5---5-5---5-5---5--||
--------------------------|---------------------------||


  E.  S E.  S E.  S E.  S    E.  S E.  S E.  S E.  S        
--------------------------|--------------------------|----||
--7---7-7---7-7---7-7---7-|--7---7-7---7-7---7-7---7-|----||
--------------------------|--------------------------|----||
--------------------------|--------------------------|----||
--5---5-5---5-5---5-----5-|------5-----5-----5-------|----||
--------------------------|--------------------------|----||




Duration Legend
---------------
W - whole
H - half
Q - quarter
E - 8th
S - 16th
T - 32nd
X - 64th
. - note dotted
|-n-|  - n-tuplets


Tablature Legend
----------------
L - tied note
x - dead note
g - grace note
(n) - ghost note
> - accentuded note
NH - natural harmonic
AH - artificial harmonic
TH - tapped harmonic
SH - semi harmonic
PH - pitch harmonic
h - hammer on
p - pull off
b - bend
br - bendRelease
pb - preBend
pbr - preBendRelease
brb - bendReleaseBend
\n/ - tremolo bar dip
\n - tremolo bar dive
-/n - tremolo bar Release up
/n\ - tremolo bar inverted dip
/n - tremolo bar return
-\n - tremolo bar Release down
S - shift slide
s - legato slide
/ -  slide into from below or out of upwards
\ -  slide into from above or out of downwards
~ - vibrato
W - wide vibrato
tr - trill
TP - tremolo picking
T - tapping
S - slap
P - pop
< - fade in
^ - brush up
v - brush down
            
Submit corrections

comments powered by Disqus
↑ Back to top | Saigon Kick Tabs for Sleep. Lyrics for acoustic guitar and electric guitar. 1 Tablatures and chords are parodies/interpretations of the original songs. You may use it for private study, scholarship, research or language learning purposes only