» » »

Love Is On The Way Bass tabs (ver.1)

Artists:  A B C D E F G H I J K L M N O P Q R S T U V W X Y Z # 

Love Is On The Way Bass tabs (ver.1)

Saigon Kick
Rating:
0/5 (0 votes)

Hard to play? Try these video lessons and learn fast.
                Stanza:
G----------|
D----------|
A-4-----0--|
E----------|

Chorus:
G-----------------------------------------|
D-----------------------------------------|
A---------2--2-2-6-4--4-4--4-0--2-0-0-----|
E-0--0--0-----------------------------4-2-|

Bridge:
G--------------|
D--------------|
A-2--2-2----0--|
E---------0----|
            
Hard to play? Try these video lessons and learn fast. | Correct




comments powered by Disqus
↑ Back to top | Tablatures and chords are parodies/interpretations of the original songs. You may use it for private study, scholarship, research or language learning purposes only