» » »

Saigon Kick, All Alright Tabs (ver.1)

Artists:  A B C D E F G H I J K L M N O P Q R S T U V W X Y Z # 

All Alright Tabs (ver.1)

Saigon Kick Tabs
 Rating:
4/5 (4 votes)
All Alright lessons Tabs too difficult? Try these video lessons and learn fast
                -------------------------------------------------------------------------------
-------------------------------------------------------------------------------


Tuning: Drop D

===========================================================================================


This track is easy to play rhythm-wise: an advanced beginner could handle it with 
practice and it certainly is in the capabilities of an intermediate. The solo is involved and 
takes advanced technique. I'll notate the main riffs and the chorus progression, and explain them.


Riff #1: This is the intro verse riff. Simple 80s style chording, it only gets used on 
the breakdown sections.

Riff #2: This is the pre-chorus progression before the second verse where the full drums 
come in.

Riff #3: This is another verse riff. 90s style Drop tune chugging.

Riff #4A: This is the the first half of the pre-chorus.

Riff #4B: Second half of the pre-chorus.

Chorus Riff: This gets played once during the first chorus, and repeats 5 times during 
the out-chorus.

Chorus Riff variant: This is the second half of the first Chorus.


==============================================================================


Riff #1

      Q     E  E  H           H.           E  E     Q    E    E  H
D#|------------------------|---------------------|------------------------|
A#|------------------------|---------------------|------------------------|
F#|------------------------|---------------------|------------------------|
C#|--10\-------7--L--------|--L------------7-----|--5-------5g7--L--------|
G#|---8\-------5--L--------|--L------------5-----|--3-------3g5--L--------|
C#|---------0--------------|------------------0--|-------0----------------|


                      PM
      H.           E  E
   ---------------------||
   ---------------------||
   ---------------------||
   --L------------7-----||
   --L------------5-----||
   ------------------0--||



Riff #2

     Q.     E  Q    Q       Q.     E  Q    Q       W
D#|----------------------|----------------------|-------------------|
A#|----------------------|----------------------|-------------------|
F#|--5------5--L----5----|----------------------|--2----------------|
C#|--5------5--L----5----|--5------5--L----5----|--0----------------|
G#|--3------3--L----3----|--5------5--L----5----|--0----------------|
C#|----------------------|--5------5--L----5----|--0----------------|



      W                   Q.     E  Q    Q       Q.     E  Q    Q
   -------------------|----------------------|----------------------|
   -------------------|----------------------|----------------------|
   --L----------------|--5------5--L----5----|----------------------|
   --L----------------|--5------5--L----5----|--5------5--L----5----|
   --L----------------|--3------3--L----3----|--5------5--L----5----|
   --L----------------|----------------------|--5------5--L----5----|



Riff #3

     PM PM PM PM PM PM PM           PM
     E  E  E  E  E  E  E  E      E  E  E   E  H
D#|---------------------------|------------------------|
A#|---------------------------|------------------------|
F#|---------------------------|------------------------|
C#|-----------------------4s--|--5-----3s--5--L--------|
G#|--0--3--5--0--2--3--0--2s--|--3-----3s--5--L--------|
C#|--0--3--5--0--2--3--0------|-----0--3s--5--L--------|



Riff #4A

     Q.     E  Q    Q       Q.     E  Q    Q       E  E  E  E  E  E  E  E
D#|----------------------|----------------------|---------------------------|
A#|----------------------|----------------------|---------------------------|
F#|--5------5--L----5----|----------------------|---------------------------|
C#|--5------5--L----5----|--5------5--L----5----|-----------------------4s--|
G#|--3------3--L----3----|--5------5--L----5----|--0--3--5--0--2--3--0--2s--|
C#|----------------------|--5------5--L----5----|--0--3--5--0--2--3--0------|



        PM
     E  E  E   E  H
  |------------------------|
  |------------------------|
  |------------------------|
  |--5-----3s--5--L--------|
  |--3-----3s--5--L--------|
  |-----0--3s--5--L--------|



Riff #4B

     Q.     E  Q    Q       Q.     E  Q    Q       H.           E  E
D#|----------------------|----------------------|---------------------|
A#|----------------------|----------------------|---------------------|
F#|--5------5--L----5----|----------------------|--3------------3--5--|
C#|--5------5--L----5----|--5------5--L----5----|--3------------3--5--|
G#|--3------3--L----3----|--5------5--L----5----|--1------------1--3--|
C#|----------------------|--5------5--L----5----|---------------------|


     W
  |-------------------|
  |-------------------|
  |--5----------------|
  |--5----------------|
  |--3----------------|
  |-------------------|



Chorus Riff

     W                   W                   W
D#|-------------------|-------------------|-------------------|
A#|--3----------------|--L----------------|-------------------|
F#|--2----------------|--L----------------|--5----------------|
C#|--0----------------|--L----------------|--5----------------|
G#|--0----------------|--L----------------|--3----------------|
C#|--0----------------|--L----------------|-------------------|


     W                   W                   W
  |-------------------|-------------------|-------------------|
  |-------------------|-------------------|-------------------|
  |--L----------------|--3----------------|--L----------------|
  |--L----------------|--3----------------|--L----------------|
  |--L----------------|--1----------------|--L----------------|
  |-------------------|-------------------|-------------------|


                     PM    PM PM PM PM PM PM PM PM
     H.           E  E     E  E  E  E  E  E  E  E
  |---------------------|--------------------------|
  |---------------------|--------------------------|
  |--2------------L-----|--------------------------|
  |--2------------L--2--|--2-----------------------|
  |--0------------L--0--|--0--5--5--3--3--2--2--0--|
  |---------------------|-----5--5--3--3--2--2--0--|



Chorus Riff variant

     W                   W                   W
D#|-------------------|-------------------|-------------------|
A#|--3----------------|--L----------------|-------------------|
F#|--2----------------|--L----------------|--5----------------|
C#|--0----------------|--L----------------|--5----------------|
G#|--0----------------|--L----------------|--3----------------|
C#|--0----------------|--L----------------|-------------------|


  W                   W                   W                   W
-------------------|-------------------|-------------------|-------------------|
-------------------|-------------------|-------------------|-------------------|
--L----------------|--3----------------|--L----------------|--2----------------|
--L----------------|--3----------------|--L----------------|--2----------------|
--L----------------|--1----------------|--L----------------|--0----------------|
-------------------|-------------------|-------------------|-------------------|


  W
-------------------||
-------------------||
--L----------------||
--L----------------||
--L----------------||
-------------------||



Guitar Solo

     Q     E     E  S  S  E    S  S  S  S
D#|-----------------8-10--Lb---L--Lb-8-10-|
A#|-----------5g10------------------------|
F#|--------x------------------------------|
C#|--------x------------------------------|
G#|---------------------------------------|
D#|---------------------------------------|


                    |---3--|
  S  S  E    S   S  S   S  S  S  E.   E.    S
--8----10b---Lb--Lb-8h-10p-8----13b---Lb---13-|
----10-----------------------10---------------|
----------------------------------------------|
----------------------------------------------|
----------------------------------------------|
----------------------------------------------|


   S   S   S  S  S  E    S  E    S  S  S  S  S   S
---Lb--Lb-10----10------10------10-------10-----10-|
-------------13----13b-----13b-----13b-L----13b----|
---------------------------------------------------|
---------------------------------------------------|
---------------------------------------------------|
---------------------------------------------------|


   E    S  S  S  S  E    S  E   S  E   E
-------10-------10------10-----10-----10--|
--13b-----13b-L----13b-----12-----13------|
------------------------------------------|
------------------------------------------|
------------------------------------------|
------------------------------------------|


                                W
   S  S  E   S  E   S  E   E    E   E
--10-10-----10-----10------------------|
--------13-----12----------------------|
----------------------12--12b--12--10--|
---------------------------------------|
---------------------------------------|
---------------------------------------|


   PM PM PM PM PM PM PM PM
   S  S  S  S  S  S  S  S     Q      E   E
--------------------------------------------|
--------------------------------------------|
--------------------------------------------|
--10-10-10-10-10-10-10-10-10g12~-----L\-----|
--------------------------------------------|
--------------------------------------------|


     E   S  S  S  S     E   Q     E      E
--------13-------15--------17~----x---------|
----------------------------------x---------|
--9g14-----14-16----16g17------------12g17--|
--------------------------------------------|
--------------------------------------------|
--------------------------------------------|


   S  S  S  S  E    S   S  S  S  S   S   Q
--17----15----13p--12p-10----10----------------|
-----------------------------------------------|
-----16----14-------------13----13p-12p-10~----|
-----------------------------------------------|
-----------------------------------------------|
-----------------------------------------------|


   S  S  S  S  Q      S  S  S  S  Q
----------------------------------------|
-----10-----------------10--------------|
--13----13-12-10~----13----13-12-10~----|
----------------------------------------|
----------------------------------------|
----------------------------------------|


      S  S  S  S  S  S  E   Q      E   E      Q.       E    H
------------------------------------------|---------------------------|
--------10--------------------------------|--13-------13----L---------|
--12g13----13-12-10----12--10~-----L\--x--|--12b------12b---Lb--------|
--------------------12-----------------x--|---------------------------|
------------------------------------------|---------------------------|
------------------------------------------|---------------------------|


  H          E    E   E    E      S   E.   Q     E      E   E   E
------------------------------|----------------------------10------|
--L---------------------------|----------------------5g10------10--|
--Lb--------12b--12--10b------|-----------------(x)----------------|
--------------------------12--|--10h-12~---L----(x)----------------|
------------------------------|------------------------------------|
------------------------------|------------------------------------|


   Q.       E   Q      E    E      Q.       E    H
---------------------------13--|--15b------15b---Lb--------|
--13~------15---L\-------------|---------------------------|
----------------------(x)------|---------------------------|
----------------------(x)------|---------------------------|
-------------------------------|---------------------------|
-------------------------------|---------------------------|


                                             |--3--|
  Q     E       E   E    E   E   E      E    S  S  S  H.
--L----------------13b--------------|-------15----------------------|
-------(x)--10g15-------15------18--|---Lb-----15----15~------------|
-------(x)------------------14------|-------------17----------------|
------------------------------------|-------------------------------|
------------------------------------|-------------------------------|
------------------------------------|-------------------------------|


  H.            Q        W                   W
----------------------|-------------------|-------------------|
--L------------15~----|--L----------------|--L----------------|
----------------------|-------------------|-------------------|
----------------------|-------------------|-------------------|
----------------------|-------------------|-------------------|
----------------------|-------------------|-------------------|


  W                   W                   W                   W
-------------------|-------------------|-------------------|-------------------|
--L----------------|--L----------------|--L----------------|--L----------------|
-------------------|-------------------|-------------------|-------------------|
-------------------|-------------------|-------------------|-------------------|
-------------------|-------------------|-------------------|-------------------|
-------------------|-------------------|-------------------|-------------------|


  W                   W
-------------------|-------------------||
--L----------------|--L----------------||
-------------------|-------------------||
-------------------|-------------------||
-------------------|-------------------||
-------------------|-------------------||



Duration Legend
---------------
W - whole
H - half
Q - quarter
E - 8th
S - 16th

Tablature Legend
----------------
L - tied note
x - dead note
g - grace note
h - hammer on
p - pull off
b - bend
br - bendRelease
pb - preBend
\ -  slide into from above or out of downwards
~ - vibrato
            
Submit corrections

comments powered by Disqus
↑ Back to top | Saigon Kick Tabs for All Alright. Lyrics for acoustic guitar and electric guitar. Tablatures and chords are parodies/interpretations of the original songs. You may use it for private study, scholarship, research or language learning purposes only