» » »

Camilo The Magician Tabs (ver.1)

Artists:  A B C D E F G H I J K L M N O P Q R S T U V W X Y Z # 

Camilo The Magician Tabs (ver.1)

Said The Whale
Rating:
5/5 (2 votes)

Hard to play? Try these video lessons and learn fast.
                
This is my first tab, so sorry if the "etiquette" isn't quite right. I did my best to 
the timing down
but if you listen along with the song, it's really easy to figure out. If anything, this 
just a starting
place for the song, but I think it sounds great if you like to play along. With that, 
the tab and let
me know what you think. Thanks.


Tuning:DADGBe

Intro:
e|--------------------------------------|--2---2-2-----2---2-2--|
B|--------------------------------------|--3---3-3-----3---3-3--|
G|--------------------------------------|--2---2-2-----2---2-2--|
D|--4-5-5-5--2-2-2-2--7-7-7-7--0-0-0-0--|--0---0-0-----0---0-0--|
A|--4-5-5-5--2-2-2-2--7-7-7-7--0-0-0-0--|--0---0-0-----0---0-0--|
D|--4-5-5-5--2-2-2-2--7-7-7-7--0-0-0-0--|--x---x-x-----x---x-x--|


Verse (Part 1):
"Honestly..."
e|--------------------------------------------------------------------------------|
B|--------------------------------------------------------------------------------|
G|--------------------------------------------------------------------------------|
D|-5----9--7-7----9--5-5----9--7-7----9--5-5----9--7-7----9--5-5----9--7~----9--5-|
A|-5----9--7-7----9--5-5----9--7-7----9--5-5----9--7-7----9--5-5----9--7~----9--5-|
D|-5----9--7-7----9--5-5----9--7-7----9--5-5----9--7-7----9--5-5----9--7~----9--5-|

Verse (Part 2):
"in, my friend..."
e|-----------------------------------------|
B|-----------------------------------------|
G|-7----11-9-9----11-7-7----11-9-9----11-7-|
D|-5----9--7-7----9--5-5----9--7-7----9--5-|
A|-5----9--7-7----9--5-5----9--7-7----9--5-|
D|-5----9--7-7----9--5-5----9--7-7----9--5-| [2x]


Pre-Chorus:
"Be the best..."
e|-0-0-0-0-|
B|-0-0-0-0-|
G|-2-2-2-2-|
D|-3-3-3-3-|
A|-3-3-3-3-|
D|-x-x-x-x-| [4x]


Chorus:
"Ca-ca-ca-Camilo..."
e|--------------------------------------|
B|--------------------------------------|
G|--------------------------------------|
D|--4-5-5-5--2-2-2-2--7-7-7-7--0-0-0-0--|
A|--4-5-5-5--2-2-2-2--7-7-7-7--0-0-0-0--|
D|--4-5-5-5--2-2-2-2--7-7-7-7--0-0-0-0--| [3x]

e|-------------------------------|
B|-------------------------------|
G|-------------------------------|
D|--4-5-5-5--2-2-2-2--7-7-7-7-x--|
A|--4-5-5-5--2-2-2-2--7-7-7-7-x--|
D|--4-5-5-5--2-2-2-2--7-7-7-7-x--|


Repeat Verse

Repeat Pre-Chorus

Repeat Chorus


Bridge: (Bass Line)
"Caroline..."
e|----------------------------------------------------------------|
B|----------------------------------------------------------------|
G|----------------------------------------------------------------|
D|----------------------------------------------------------------|
A|----------------------------------------------------------------|
D|-4-----5-0-----4---4---5-0-------4-----5-0-----4---4---5-0------| [2x]

e|-------------------------------------------------------------------|
B|-------------------------------------------------------------------|
G|-------------------------------------------------------------------|
D|-------------------------------------------------------------------|
A|-------------------------------------------------------------------|
D|-4-----5-0-----4---4---5-0-------4-----5-0~---0-0-0-0-0-0-0-0-0-0-0|


Solo: (Rhythm Guitar)
e|-----------------------------------------------|
B|-----------------------------------------------|
G|-----------------------------------------------|
D|-7--7--7---9--9--9---5--5--5--5--5--5--5~--5~--|
A|-7--7--7---9--9--9---5--5--5--5--5--5--5~--5~--|
D|-7--7--7---9--9--9---5--5--5--5--5--5--5~--5~--| [4x]

e|---------------------------0~----|
B|---------------------------0~----|
G|--7-7-7-7-7-7-7-7-7-7-7-7--2~----|
D|--5-5-5-5-5-5-5-5-5-5-5-5--3~----|
A|--5-5-5-5-5-5-5-5-5-5-5-5--3~----|
D|--5-5-5-5-5-5-5-5-5-5-5-5--x-----|


Repeat Chorus


Outro:
e|--2-2-2-2--|
B|--3-3-3-3--|
G|--2-2-2-2--|
D|--0-0-0-0--|
A|--0-0-0-0--|
D|--x-x-x-x--| [About 8x]

| ~  Hold note
| x  Mute note
===============================================================================
            
Hard to play? Try these video lessons and learn fast. | Correct




comments powered by Disqus
↑ Back to top | Tablatures and chords are parodies/interpretations of the original songs. You may use it for private study, scholarship, research or language learning purposes only