» » »

Wee Not Going Down Tabs (ver.1)

Artists:  A B C D E F G H I J K L M N O P Q R S T U V W X Y Z # 

Wee Not Going Down Tabs (ver.1)

Sahara Hotnights
Rating:
0/5 (0 votes)

Hard to play? Try these video lessons and learn fast.
                I've only done the rhythm, but I'll work out the lead later. I've a load of other work to do, y'know, with school and all.


h  - harmonics 
~~ - sustain, vibrato
/  - slide up
\  - slide down



INTRO:
e|-------------------------------------------------------------|
B|-------------------------------------------------------------|
G|-------------------------------------------------------------|
D|-999/12-121212\9-999/12-12121212-77777777-9-9999999----------|
A|-999/12-121212\9-999/12-12121212-77777777-9-9999999----------|
E|-777/10-101010\7-777/10-10101010-55555555-7-7777777----------|x2
					      hhhhhhh			

e|-------------------------------------------------------------|
B|-------------------------------------------------------------|
G|-------------------------------------------------------------|
D|-999/12-121212\9-999/12-12121212-77777777-9------------------|
A|-999/12-121212\9-999/12-12121212-77777777-9------------------|
E|-777/10-101010\7-777/10-10101010-55555555-7------------------|
					      

VERSE: (all p.m. except for harmonics and solo)
e|-------------------------------------------------------------|
B|-------------------------------------------------------------|
G|-------------------------------------------------------------|
D|-999/12-121212\9-999/12-12121212-77777777-9-9999999----------|
A|-999/12-121212\9-999/12-12121212-77777777-9-9999999----------|
E|-777/10-101010\7-777/10-10101010-55555555-7-7777777----------|x3
					      hhhhhhh		

e|-------------------------------------------------------------|
B|-------------------------------------------------------------|
G|-------------------------------------------------------------|
D|-999/12-121212\9-999/12-12121212-77777777-9------------------|
A|-999/12-121212\9-999/12-12121212-77777777-9------------------|
E|-777/10-101010\7-777/10-10101010-55555555-7------------------|

e|-------------------------------------------------------------|
B|-12--10------------------------------------------------------|
G|---------11-10--9--------------------------------------------|
D|-------------------12-9----9---------------------------------|
A|------------------------12-----------------------------------|
E|-------------------------------------------------------------|


CHORUS:
e|------------------33333333--00000000-------------------------|
B|------------------33333333--00000000-------------------------|
G|------------------44444444--00000000-------------------------|
D|-7-/9999-7-/9999--55555555--22222222-------------------------|
A|-7-/9999-7-/9999--55555555--22222222-------------------------|
E|-5-/7777-5-/7777--33333333--00000000-------------------------|x2


POST-CHORUS:
e|-------------------------------------------------------------|
B|-------------------------------------------------------------|
G|-------------------------------------------------------------|
D|-999/12-121212\9-999/12-12121212-77777777-9-9999999----------|
A|-999/12-121212\9-999/12-12121212-77777777-9-9999999----------|
E|-777/10-101010\7-777/10-10101010-55555555-7-7777777----------|
					      hhhhhhh			

e|-------------------------------------------------------------|
B|-------------------------------------------------------------|
G|-------------------------------------------------------------|
D|-999/12-121212\9-999/12-12121212-77777777-9------------------|
A|-999/12-121212\9-999/12-12121212-77777777-9------------------|
E|-777/10-101010\7-777/10-10101010-55555555-7------------------|
	      
VERSE x1
CHORUS x2

BREAK:
e|-------------------------------------------------------------|
B|-------------------------------------------------------------|
G|-------------------------------------------------------------|
D|-------------------------------------------------------------|
A|-0-2--0-2--0-2--0-2--x5-(I think)--/14~~---------------------|
E|-------------------------------------------------------------|

CHORUS x2

OUTRO:
e|-------------------------------------------------------------|
B|-------------------------------------------------------------|
G|-------------------------------------------------------------|
D|-999/12-121212\9-999/12-12121212-77777777-9\-----------------|
A|-999/12-121212\9-999/12-12121212-77777777-9\-----------------|
E|-777/10-101010\7-777/10-10101010-55555555-7\-----------------|
            
Hard to play? Try these video lessons and learn fast. | Correct




comments powered by Disqus
↑ Back to top | Tablatures and chords are parodies/interpretations of the original songs. You may use it for private study, scholarship, research or language learning purposes only