» » »

Sahara Hotnights, Out Of The System Tabs (ver.1)

Artists:  A B C D E F G H I J K L M N O P Q R S T U V W X Y Z # 

Out Of The System Tabs (ver.1)

Sahara Hotnights Tabs
 Rating:
4.2/5 (5 votes)
Out Of The System lessons Tabs too difficult? Try these video lessons and learn fast
                INTRO:

Guitar 1
e|---------------------------------------------------------------------------|
B|---------------------------------------------------------------------------|
G|-9-9--4-4--5-5--7-7--9-9-9-9-12-9-9-9--------------------------------------|
D|-9-9--4-4--5-5--7-7--9-9-9-9-12-9-9-9--------------------------------------|
A|-7-7--2-2--3-3--5-5--7-7-7-7-10-7-7-7--------------------------------------|
E|---------------------------------------------------------------------------|x2

Guitar 2 
e|-------------|-------------|-----------------------------------------------|
B|----13-12----|-------------|-----------------------------------------------|
G|-------------|----13-12----|----------7h9----------------------------------|
D|-------------|-------------|-----7h9---------------------------------------|
A|-------------|-------------|-----------------------------------------------|
E|-------------|-------------|-----------------------------------------------|


VERSES:

Guitar 1
e|----------------------------|----------|-----------------------------------|
B|----------------------------|----------|-----------------------------------|
G|-9-9--4-4--5-5--7-7--9/-----|------7h9-|-9-9--4-4--5-5--7-7--9/------------|
D|-9-9--4-4--5-5--7-7--9/-----|-7h9------|-9-9--4-4--5-5--7-7--9/------------|
A|-7-7--2-2--3-3--5-5--7/-x2--|----------|-7-7--2-2--3-3--5-5--7/--x2--------|
E|----------------------------|----------|-----------------------------------|

Guitar 2
e|---------------------------------------------------------------------------|
B|---------------------------------------------------------------------------|
G|-9-9--4-4--5-5--7-7--9-9-9-9-12-9-9-9--------------------------------------|
D|-9-9--4-4--5-5--7-7--9-9-9-9-12-9-9-9--------------------------------------|
A|-7-7--2-2--3-3--5-5--7-7-7-7-10-7-7-7--------------------------------------|
E|---------------------------------------------------------------------------|x4


PRE-CHORUS:

Guitar 1 and 2
e|---------------------------------------------------------------------------|
B|---------------------------------------------------------------------------|
G|-5--7-7/5---7-7------------------------------------------------------------|
D|-5--7-7/5---7-7------------------------------------------------------------|
A|-3--5-5/3---5-5------------------------------------------------------------|
E|---------------------------------------------------------------------------|


CHORUS:

Guitar 1 and 2
e|---------------------------------------------------------------------------|
B|---------------------------------------------------------------------------|
G|-9-9-9-9-9-9--12--12--9-9-9-9--5-5-7-7-------------------------------------|
D|-9-9-9-9-9-9--12--12--9-9-9-9--5-5-7-7-------------------------------------|
A|-7-7-7-7-7-7--10--10--7-7-7-7--3-3-5-5-------------------------------------|
E|---------------------------------------------------------------------------|x2


INTRO x1
VERSE (Guitar 1's palm muting the chords) x1
PRE-CHORUS x1
CHORUS x1
PRE-CHORUS x1


BREAK: (after bass solo)

Guitar 1
e|---------------------------------------------------------------------------|
B|-9-9-7-9-9-9-9-12-12--9-9-7-9-5-5-7-7---9-9-7-9-9-9-9-12-12--5-5--7-7------|
G|-9-9-7-9-9-9-9-12-12--9-9-7-9-5-5-7-7---9-9-7-9-9-9-9-12-12--5-5--7-7------|
D|---------------------------------------------------------------------------|
A|---------------------------------------------------------------------------|
E|---------------------------------------------------------------------------|

Guitar 2
e|---------------------------------------------------------------------------|
B|---------------------------------------------------------------------------|
G|-9-9-7-9-9-9-9-12-12--9-9-7-9-5-5-7-7---9-9-7-9-9-9-9-12-12--5-5--7-7------|
D|-x-x-x-x-x-x-x--x--x--x-x-x-x-x-x-x-x---x-x-x-x-x-x-x--x--x--x-x--x-x------|
A|-7-7-5-7-7-7-7-10-10--7-7-5-7-3-3-5-5---7-7-5-7-7-7-7-10-10--3-3--5-5------|
E|---------------------------------------------------------------------------|


CHORUS x2


OUTRO:

Guitar 1 and 2
e|---------------------------------------------------------------------------|
B|---------------------------------------------------------------------------|
G|-9-9--4-4--5-5--7-7--9/----------------------------------------------------|
D|-9-9--4-4--5-5--7-7--9/----------------------------------------------------|
A|-7-7--2-2--3-3--5-5--7/----------------------------------------------------|
E|---------------------------------------------------------------------------|
            
Submit corrections

comments powered by Disqus
↑ Back to top | Sahara Hotnights Tabs for Out Of The System. Lyrics for acoustic guitar and electric guitar. Tablatures and chords are parodies/interpretations of the original songs. You may use it for private study, scholarship, research or language learning purposes only