» » »

Sahara Hotnights, On Top Of Your World Tabs (ver.1)

Artists:  A B C D E F G H I J K L M N O P Q R S T U V W X Y Z # 

On Top Of Your World Tabs (ver.1)

Sahara Hotnights Tabs
 Rating:
4.4/5 (7 votes)
On Top Of Your World lessons Tabs too difficult? Try these video lessons and learn fast
1
                ----------------------------------------------------------


----------------------------------------------------------



-----------------------------------------------------------

Tuning: Standard (e B G D A E)

Damp down : *
Bend : ^

Intro:

e |-------------------------------------------------------------------|
B |-------------------------------------------------------------------|
G |-------------------------------------------------14^------14^------|
D |----------------------------14-14-14-14-14-14-------14-12----14-12-|
A |-------------------------------------------------------------------|
E |--12*12*12*12*12*12*12*12*-----------------------------------------|

e |------------------------------------------------------------------|
B |------------------------------------------------------------------|
G |-----------------------14^------14^-------------------------------|
D |--14-14-14-14-14-14-------14-12----14-12--------------------------|
A |------------------------------------------------------------------|
E |------------------------------------------------------------------|

Verse:

e |-----------------------------------------------|
B |-----------------------------------------------|
G |----14^-------14^----------14^-------14^-------|
D |-------14-12-----14-12--------14-12-----14-12--|
A |-----------------------------------------------|
E |-----------------------------------------------|

e |------------------------------------------|
B |------------------------------------------|
G |----------------------14^-------14^-------|  x2
D |-14-14-14-14-14-14-------14-12-----14-12--|
A |------------------------------------------|
E |------------------------------------------|

e |------12-------12-------12-------12--|
B |----12-------12-------12-------12----|
G |-------------------------------------|
D |--14-------14-------14-------14------|
A |-------------------------------------|
E |-------------------------------------|

Chours:

e |------------------------|
B |------------------------|
G |--9999-7777-------------|  x2
D |--9999-7777-7777-5555---|
A |--7777-5555-7777-5555---|
E |------------5555-3333---|

e |---------------------|
B |---------------------|
G |--9999999999999999---|
D |--9999999999999999---|
A |--7777777777777777---|
E |---------------------|

Verse:

e |-----------------------------------------------|
B |-----------------------------------------------|
G |----14^-------14^----------14^-------14^-------|
D |-------14-12-----14-12--------14-12-----14-12--|
A |-----------------------------------------------|
E |-----------------------------------------------|

e |------------------------------------------|
B |------------------------------------------|
G |----------------------14^-------14^-------|  x2
D |-14-14-14-14-14-14-------14-12-----14-12--|
A |------------------------------------------|
E |------------------------------------------|

e |------12-------12-------12-------12--|
B |----12-------12-------12-------12----|
G |-------------------------------------|
D |--14-------14-------14-------14------|
A |-------------------------------------|
E |-------------------------------------|

Chours:

e |------------------------|
B |------------------------|
G |--9999-7777-------------|  x4
D |--9999-7777-7777-5555---|
A |--7777-5555-7777-5555---|
E |------------5555-3333---|

e |---------------|
B |---------------|
G |--99--99---99--|
D |--99--99---99--|
A |--77--77---77--|
E |---------------|

e |----------------------|
B |----------------------|
G |--9999-7777-----------|  x4
D |--9999-7777-7777-5555-|
A |--7777-5555-7777-5555-|
E |------------5555-3333-|

e |--------------------------------     ---------      --------0-|
B |--------------------------------     ---------      ----------|
G |-9999999999999999999999999999-78  x2 -99999-78  x7  -99999999-|
D |-----------------------------9--     -------9-      ----------|
A |--------------------------------     ---------      ----------|
E |--------------------------------     ---------      ----------|
            
Submit corrections

comments powered by Disqus
↑ Back to top | Sahara Hotnights Tabs for On Top Of Your World. Lyrics for acoustic guitar and electric guitar. 1 Tablatures and chords are parodies/interpretations of the original songs. You may use it for private study, scholarship, research or language learning purposes only