» » »

On Top Of Your World Bass tabs (ver.1)

Artists:  A B C D E F G H I J K L M N O P Q R S T U V W X Y Z # 

On Top Of Your World Bass tabs (ver.1)

Sahara Hotnights
Rating:
0/5 (0 votes)

Hard to play? Try these video lessons and learn fast.
                Any questions about the tab, please let me know.

You will easily get the riff order while listening, as well as
the rythm.

r = rest
/ = slide up
\ = slide down

Intro/Verse

G|-------------------------------------------------
D|-------------------------------------------------
A|-7-7-7-7-7-7-7-7/-14-14-14-14-14-14-14-14\-------
E|-------------------------------------------------

G|-------------------------------------------------
D|-------------------------------------------------
A|-------------------------------------------------
E|-7-7-7-7-7-7-r-5-7-7-7-7-7-7-r-5-----------------

Bridge (Steady eightnotes)

C A C D

Chorus (Steady eightnnotes)
E D A G

  This is how The E in the chorus is played
G|------------------
D|-------------7-9--
A|-7-7-7-7-7-9------
E|------------------
            
Hard to play? Try these video lessons and learn fast. | Correct




comments powered by Disqus
↑ Back to top | Tablatures and chords are parodies/interpretations of the original songs. You may use it for private study, scholarship, research or language learning purposes only