» » »

Sahara Hotnights, Only The Fakes Survive Tabs (ver.1)

Artists:  A B C D E F G H I J K L M N O P Q R S T U V W X Y Z # 

Only The Fakes Survive Tabs (ver.1)

Sahara Hotnights Tabs
Rating:
5/5 (3 votes)
Only The Fakes Survive lessons Tabs too difficult? Try these video lessons and learn fast
                INTRO:

Guitar 1
e|---------------------------------------------------------------------------|
B|---------------------------------------------------------------------------|
G|------10--------7------6^------7-------------------------------------------|
D|----8----8----7---7--------------8-----------------------------------------|
A|-10---------8--------6-----------------------------------------------------|
E|--------------------------6--6---------------------------------------------|x3

Guitar 2 (after 2 bars)
e|---------------------------------------------------------------------------|
B|---------8-6---------------------------------------------------------------|
G|-7-7-7-7-----7-5-5^--3-3-3-3-----------------------------------------------|
D|---------------------------------------------------------------------------|
A|---------------------------------------------------------------------------|
E|---------------------------------------------------------------------------|x2


VERSE:

Guitar 1
e|---------------------------------------------------------------------------|
B|---------------------------------------------------------------------------|
G|-------10--------7------6^------7------------------------------------------|
D|-----8----8----7---7--------------8----------------------------------------|
A|-/10---------8--------6----------------------------------------------------|
E|---------------------------6--6--------------------------------------------|x3

e|---------------------------------------------------------------------------|
B|---4---------6----------8--------10----------------------------------------|
G|-----5---------7----------8---------10-------------------------------------|
D|-------5---------7---------------------10----------------------------------|
A|-3--------/5--------/6-------/8--------------------------------------------|
E|---------------------------------------------------------------------------|


BREAK:

Guitar 1
e|---------------------------------------------------------------------------|
B|---------------------------------------------------------------------------|
G|-------10--------7------6^------7------------------------------------------|
D|-----8----8----7---7--------------8----------------------------------------|
A|-/10---------8--------6----------------------------------------------------|
E|---------------------------6--6--------------------------------------------|

Guitar 2 
e|---------------------------------------------------------------------------|
B|---------8-6---------------------------------------------------------------|
G|-7-7-7-7-----7-5-5^--3-3-3-3-----------------------------------------------|
D|---------------------------------------------------------------------------|
A|---------------------------------------------------------------------------|
E|---------------------------------------------------------------------------|


VERSE x1


CHORUS:

Guitar 1 & 2 (both guitars could be different octaves to each other)

   Gm7       Dm7   Bb            C           Gm7       D#maj7    Fmaj7
e|-3-3-3-3---5-5-5-1---1-1-1-1---0-0-0-0-----3-3-3-3---6-6-6-6---8-8-8-8-8-8-8-8----|
B|-3-3-3-3---6-6-6-3---3-3-3-3---1-1-1-1-----3-3-3-3---8-8-8-8--1010101010101010----|
G|-3-3-3-3---7-7-7-3---3-3-3-3---0-0-0-0-----3-3-3-3---8-8-8-8--1010101010101010----|
D|-5-5-5-5---7-7-7-3---3-3-3-3---2-2-2-2-----5-5-5-5---8-8-8-8--1010101010101010----|
A|-5-5-5-5---5-5-5-1---1-1-1-1---3-3-3-3-----5-5-5-5---6-6-6-6---8-8-8-8-8-8-8-8----|
E|-3-3-3-3-----------------------------------3-3-3-3--------------------------------|x2


POST-CHORUS:

Guitar 1
e|---------------------------------------------------------------------------|
B|---------------------------------------------------------------------------|
G|-------10--------7------6^------7------------------------------------------|
D|-----8----8----7---7--------------8----------------------------------------|
A|-/10---------8--------6----------------------------------------------------|
E|---------------------------6--6--------------------------------------------|x2

Guitar 2 
e|---------------------------------------------------------------------------|
B|---------8-6---------------------------------------------------------------|
G|-7-7-7-7-----7-5-5^--3-3-3-3-----------------------------------------------|
D|---------------------------------------------------------------------------|
A|---------------------------------------------------------------------------|
E|---------------------------------------------------------------------------|x2


VERSE x1
CHORUS x1


CHORUS: (keychange)

Guitar 1 & 2 (again, both guitars could be different octaves to each other)

   Am7       Em7   Cmaj7         Dmaj7       Am7      Fmaj7     Gmaj7   
e|-5-5-5-5---7-7-7-3---3-3-3-3---5-5-5-5-----5-5-5-5---8-8-8-8--1010101010101010----|
B|-5-5-5-5---8-8-8-5---5-5-5-5---7-7-7-7-----5-5-5-5--10101010--1212121212121212----|
G|-5-5-5-5---9-9-9-5---5-5-5-5---7-7-7-7-----5-5-5-5--10101010--1212121212121212----|
D|-7-7-7-7---9-9-9-5---5-5-5-5---7-7-7-7-----7-7-7-7--10101010--1212121212121212----|
A|-7-7-7-7---7-7-7-3---3-3-3-3---5-5-5-5-----7-7-7-7---8-8-8-8--1010101010101010----|
E|-5-5-5-5-----------------------------------5-5-5-5--------------------------------|x2

(let last chord ring before moving onto solo)


INTERLUDE:

Guitar 1
e|---------------------------------------------------------------------------|
B|---------------------------------------------------------------------------|
G|-------10--------7------6^------7------------------------------------------|
D|-----8----8----7---7--------------8----------------------------------------|
A|-/10---------8--------6----------------------------------------------------|
E|---------------------------6--6--------------------------------------------|x4

Guitar 2 (work out the timing yourself)
e|-----------------------10------------------------------------------------13-------------------|
B|-----------------/8~~------11^-8---/13-13^r--11-13-11-13^--13-11-13-11-------13^-11--13^-11~~-|
G|-5^r--5--5^-3-3--------------------------------------------------------12---------------------|
D|----------------------------------------------------------------------------------------------|
A|----------------------------------------------------------------------------------------------|
E|----------------------------------------------------------------------------------------------|


VERSE x1
CHORUS x2


OUTRO:

Guitar 1

   Gm7       Dm7   Bb            C           Gm7       D#maj7    Fmaj7
e|-3-3-3-3---5-5-5-1---1-1-1-1---0-0-0-0-----3-3-3-3---6-6-6-6---8-8-8-8-8-8-8-8----|
B|-3-3-3-3---6-6-6-3---3-3-3-3---1-1-1-1-----3-3-3-3---8-8-8-8--1010101010101010----|
G|-3-3-3-3---7-7-7-3---3-3-3-3---0-0-0-0-----3-3-3-3---8-8-8-8--1010101010101010----|
D|-5-5-5-5---7-7-7-3---3-3-3-3---2-2-2-2-----5-5-5-5---8-8-8-8--1010101010101010----|
A|-5-5-5-5---5-5-5-1---1-1-1-1---3-3-3-3-----5-5-5-5---6-6-6-6---8-8-8-8-8-8-8-8----|
E|-3-3-3-3-----------------------------------3-3-3-3--------------------------------|x6

Guitar 2
e|---------------------------------------------------------------------------|
B|-/8~~-(3 bars)--\6~~-(1 bar)--/8~~-(3bars)--/10^-(1bar)------------------|
G|---------------------------------------------------------------------------|
D|---------------------------------------------------------------------------|
A|---------------------------------------------------------------------------|
E|---------------------------------------------------------------------------|x2

e|-15^-(till the end)------|
B|-------------------------|
G|-------------------------|
D|-------------------------|
A|-------------------------|
E|-------------------------|


Guitar 1 & 2 

End on Am7
e|--5------|
B|--5------|
G|--5------|
D|--7------|
A|--7------|
E|--5------|


KEY:
^  - bend 
~~ - sustain, vibrato 
r  - release
/  - slide up
\  - slide down
            

comments powered by Disqus
↑ Back to top | Sahara Hotnights Tabs for Only The Fakes Survive. Lyrics for acoustic guitar and electric guitar. Tablatures and chords are parodies/interpretations of the original songs. You may use it for private study, scholarship, research or language learning purposes only