» » »

Oh Darling! Tabs (ver.1)

Artists:  A B C D E F G H I J K L M N O P Q R S T U V W X Y Z # 

Oh Darling! Tabs (ver.1)

Sahara Hotnights
Rating:
0/5 (0 votes)

Hard to play? Try these video lessons and learn fast.
                :: Chords ::

Em7-5       x7878x
Am13        575665
Dm/C#       x47765
Dmmaj7/C#   x47665
G7          xx5767

:: Intro ::

    Em7-5            Am13
e|----------------|---5------------|
B|---8------------|---6------------|
G|---7------------|---6------------|
D|---8------------|---5------------|
A|---7------------|---7------------|
E|----------------|---5------------|


:: Verse ::

Guitar 1
    Dm               Dm(maj7)/C#     G7 
e|----------------|----------------|----------------|----------------|
B|----------------|----------------|----------------|----------------|
G|----------------|----------------|----------------|----------------|
D|7-7-7-7-7-7-7-7-|7-7-7-7-7-7-7-7-|----------------|----------------|
A|5-5-5-5-5-5-5-5-|4-4-4-4-4-4-4-4-|5-5-5-5-5-5-5-5-|5-5-5-5-5-5-5-5-|
E|----------------|----------------|3-3-3-3-3-3-3-3-|3-3-3-3-3-3-3-3-|

Guitar 2
e|----------------|----------------|---------7------|-7-------7------|
B|----------------|-6-6-6-6-6-6-6-6|----6-------6---|----6-------6---|
G|----------------|7-7-7-7-7-7-7-7-|/7-----7------7-|------7-------7-|
D|----------------|----------------|----------------|----------------|
A|----------------|----------------|----------------|----------------|
E|----------------|----------------|----------------|----------------|

Guitar 1 can play the chords stated above to spice things up a bit.
Use either Dm/C# or Dmmaj7/C#, is just a matter of taste.

:: Bridge 1 ::

Guitar 1
    F                Gm               A
e|---8------------|---10-----------|---12-----------|
B|---10-----------|---11-----------|---14-----------|
G|---10-----------|---12-----------|---14-----------|
D|---10-----------|---12-----------|---14-----------|
A|---8------------|---10-----------|---12-----------|
E|----------------|----------------|----------------|

Guitar 2
   F                 Gm               Dm/C# (A)
e|----------------|----------------|----------------|
B|----------------|----------------|----------------|
G|----------------|----------------|----------------|
D|----------------|----------------|---7------------|
A|---3------------|---5------------|---4------------|
E|---1------------|---3------------|----------------|

:: Chorus ::

Guitar 1 (Guitar 2 plays chords written above and the little fill at the end)
    Dm               A                Dm
e||------------------|----------------|----------------|
B||@-----------------|----------------|----------------|
G||------------------|----------------|----------------|
D||--7-7-7-7-7-------|----------------|7-7-7-7-7-7-7-7-|
A||@-5-5-5-5-5-------|7-7-7-7-7-7-7-7-|5-5-5-5-5-5-5-5-|
E||------------------|5-5-5-5-5-5-5-5-|----------------|

   C                Bb               Bb
e|----------------|--------------1-|1-1-1-1-1-1-1-1---||
B|----------------|3-3-3-3-5-5-5---|-----------------@||
G|----------------|----------------|------------------||  Repeat x2
D|5-5-5-5-5-5-5-5-|3-3-3-3-3-3-3-3-|3-3-3-3-3-3-3-3---||
A|3-3-3-3-3-3-3-3-|1-1-1-1-1-1-1-1-|1-1-1-1-1-1-1-1--@||   Then
E|----------------|----------------|------------------||

    Bb               Bb
e|--------------1-|1-1-1-1-1-1-1-1-|
B|3-3-3-3-5-5-5---|----------------|
G|----------------|----------------|        
D|3-3-3-3-3-3-3-3-|3-3-3-3-3-3-3-3-|
A|1-1-1-1-1-1-1-1-|1-1-1-1-1-1-1-1-|
E|----------------|----------------|

:: Bridge 2 ::

Guitar 1
    Dm               Dmmaj7/C#            G
e||--5-5-5---------|-5-5--5--5------|-7-7--8--7------|-7-7--8--7------||
B||@-6-6-6---------|-6-6--6--6------|-6-6--6--6------|-6-6--6--6-----@||
G||--7-7-7---------|-6-6--6--6------|-7-7--7--7------|-7-7--7--7------||
D||--7-7-7---------|-7-7--7--7------|----------------|----------------||  x2
A||@-5-5-5---------|-5-5--5--5------|----------------|---------------@||
E||----------------|----------------|----------------|----------------||

Guitar 2
e|----------------|----------------|----------------|----------------|
B|----------------|----------------|----------------|----------------|
G|----------------|----------------|----------------|--------------5-|
D|-7~~~~~---------|----------------|----------------|----------5-7---|
A|----------------|----------------|----------------|----------------|
E|----------------|----------------|----------------|----------------|


e|----------------|----------------|----------------|----------------|
B|----------------|----------------|----------------|----------8/10--|
G|-7~~~~~---------|----------------|----------------|----------------|
D|-7~~~~~---------|----------------|----------------|----------------|
A|----------------|----------------|----------------|----------------|
E|----------------|----------------|----------------|----------------|


Song Structure:

Intro

Verse x2
Bridge 1
Verse x2

Chorus
Bridge 2

Verse x1
Bridge 1

Chorus

Verse x2 (played as a combination of verse riff and bridge 2 riff)

Chorus x2
            
Hard to play? Try these video lessons and learn fast. | Correct




comments powered by Disqus
↑ Back to top | Tablatures and chords are parodies/interpretations of the original songs. You may use it for private study, scholarship, research or language learning purposes only