>
 >
Nerves

Nerves Guitar Tabs

Sahara Hotnights - Nerves chords, tabs, tablatures, lyrics

Guitar lessons | Add/correct | Request | Top 50 tabs Artists:  A B C D E F G H I J K L M N O P Q R S T U V W X Y Z 0-9

Nerves Guitar Tabs – Sahara Hotnights

CD, Sheet music, Poster

Do you like Nerves? Share with your friends now
Tabs
Sahara Hotnights

!!!Read This!!!
This song is awesome and its a lot of fun to play. It can get a little confusing so
read this!The song is taught to you in sections and at the bottom is the order. if you see
(untitled)------------------------------------------------->untitled, this is a quick tab
for you to find the parts your looking for more easily. also if you see a 
!!!(untitled)!!!
This means there is something different to that part than the rest of the section.


(intro)------------------------------------------->intro
Guitar 2
e-3/12-12-12-12-10-10-10-10--9-10--9--9-----9--9-|
B-3/12-12-12-12-10-10-10-10-10-10-10-10----10-10-|
G------------------------------------------------|
D------------------------------------------------|
A------------------------------------------------|
E------------------------------------------------|

e--9/0--0--0-----2--2----0--0--3--0-----3/-------|
B-10/0--1--1-----3--3----0--0--3--0-----3/-------|
G-----0-------2----------------------------------|
D------------------------------------------------|
A------------------------------------------------|
E------------------------------------------------|

Guitar 1
e------------------------------------------------|
B------------------------------------------------|
G-------------9-----9-----7--7-----7-------------|
D-2-----2-----9-----9-----7--7-----7-------------|
A-2-----2-----5-----5-----5--5-----5-------------|
E-0-----0----------------------------------------|

Guitar 2
e-3/12-12-12-12-10-10-10-10--9-10--9--9-----9--9-|
B-3/12-12-12-12-10-10-10-10-10-10-10-10----10-10-|
G------------------------------------------------|
D------------------------------------------------|
A------------------------------------------------|
E------------------------------------------------|

Gutiar 1
e------------------------------------------------|
B------------------------------------------------|
G------------------------------------------------|
D-9-----9-----7-----7-----2--2--2--2-----2--2----|
A-9-----9-----7-----7-----2--2--2--2-----2--2----|
E-7-----7-----5-----5-----0--0--3--0-----0--0----|

Gutiar 2
e--9/---0--0-----2--2----0--0--3--0-----3/-------|
B-10/---1--1-----3--3----0--0--3--0-----3/-------|
G-----0-------2----------------------------------|
D------------------------------------------------|
A------------------------------------------------|
E------------------------------------------------|

-------------------------------------------------->intro

(Verse 1)----------------------------------------------------->Verse 1
Guitar 1
e------------------------------------------------|
B------------------------------------------------|
G-9--9-----9--9-----9-----7--7-----7-------------|
D-9--9-----9--9-----9-----7--7-----7-------------|
A-7--7-----7--7-----7-----5--5-----5-------------|
E------------------------------------------------|

Guitar 2
e------------------------------------------------|
B------------------------------------------------|
G-9--9-----9-11b----9-----7--7-----7-------------|
D-9--9-----9--------9-----7--7-----7-------------|
A------------------------------------------------|
E------------------------------------------------|

Guitar 1
e------------------------------------------------|
B------------------------------------------------|
G------------------------------------------------|
D-9--9--------7--7--------2--2-----2-----2--2----|
A-9--9--------7--5--------2--2-----2-----2--2----|
E-7--7--------5--5--------3--0-----0-----0--0----|

Guitar 2
e------------------------------------------------|
B------------------------------------------------|
G------------------------------------------------|
D-x--9-----x--x--7-----x--2--2-----2-----2--2----|
A-x--9-----x--x--5-----x--2--2-----2-----2--2----|
E-x--7-----x--x--5-----x--3--0-----0-----0--0----|

Guitar 1
e------------------------------------------------|
B------------------------------------------------|
G-9--9-----9--9-----9-----7--7-----7-------------|
D-9--9-----9--9-----9-----7--7-----7-------------|
A-7--7-----7--7-----7-----5--5-----5-------------|
E------------------------------------------------|

Guitar 2
e------------------------------------------------|
B------------------------------------------------|
G-9--9-----9-11b----9-----7--7-----7-------------|
D-9--9-----9--------9-----7--7-----7-------------|
A------------------------------------------------|
E------------------------------------------------|

Guitar 1
e------------------------------------------------|
B------------------------------------------------|
G------------------------------------------------|
D-9--9--------7--7--------2--2-----2-----2--2----|
A-9--9--------7--5--------2--2-----2-----2--2----|
E-7--7--------5--5--------3--0-----0-----0--0----|

Guitar 2
e------------------------------------------------|
B------------------------------------------------|
G------------------------------------------------|
D-x--9-----x--x--7-----x--2--2-----2-----2--2----|
A-x--9-----x--x--5-----x--2--2-----2-----2--2----|
E-x--7-----x--x--5-----x--3--0-----0-----0--0----|

Guitar 1
e------------------------------------------------|
B------------------------------------------------|
G-9--9-----9--9-----9-----7--7-----7--7-----7----|
D-9--9-----9--9-----9-----7--7-----7--7-----7----|
A-7--7-----7--7-----7-----5--5-----5--5-----5----|
E------------------------------------------------|

Guitar 2
e------------------------------------------------|
B------------------------------------------------|
G-9--9-----9-11b----9-----7--7-----7-------------|
D-9--9-----9--------9-----7--7-----7-------------|
A------------------------------------------------|
E------------------------------------------------|

Guitar 1
e------------------------------------------------|
B------------------------------------------------|
G------------------------------------------------|
D-9--9--------7--7--------2--2-----2-----2--2----|
A-9--9--------7--5--------2--2-----2-----2--2----|
E-7--7--------5--5--------3--0-----0-----0--0----|

Guitar 2
e------------------------------------------------|
B------------------------------------------------|
G------------------------------------------------|
D-x--9-----x--x--7-----x--2--2-----2-----2--2----|
A-x--9-----x--x--5-----x--2--2-----2-----2--2----|
E-x--7-----x--x--5-----x--3--0-----0-----0--0----|

Guitar 1
e------------------------------------------------|
B------------------------------------------------|
G-9--9-----9--9-----9-----7--7-----7-------------|
D-9--9-----9--9-----9-----7--7-----7-------------|
A-7--7-----7--7-----7-----5--5-----5-------------|
E------------------------------------------------|

Guitar 2
e------------------------------------------------|
B------------------------------------------------|
G-9--9-----9-11b----9-----7--7-----7-------------|
D-9--9-----9--------9-----7--7-----7-------------|
A------------------------------------------------|
E------------------------------------------------|

Guitar 1
e------------------------------------------------|
B------------------------------------------------|
G------------------------------------------------|
D-9--9--------7--7--------2--2-----2-----2--2----|
A-9--9--------7--5--------2--2-----2-----2--2----|
E-7--7--------5--5--------3--0-----0-----0--0----|

Guitar 2
e------------------------------------------------|
B------------------------------------------------|
G------------------------------------------------|
D-x--9-----x--x--7-----x--2--2-----2-----2--2----|
A-x--9-----x--x--5-----x--2--2-----2-----2--2----|
E-x--7-----x--x--5-----x--3--0-----0-----0--0----|
(Verse 1)----------------------------------------------------->Verse 1

(Bridge 1)---------------------------------------->Bridge 1
Guitar 1
e------------------------------------------------|
B------------------------------------------------|
G------------------------------------------------|
D-9-----------9--9--9--9--9--9--9--9--9--9--9--9-|
A-9-----------9--9--9--9--9--9--9--9--9--9--9--9-|
E-7-----------7--7--7--7--7--7--7--7--7--7--7--7-|

Guitar 2
e------------------------------------------------|
B------------------------------------------------|
G------------------------------------------------|
D-9-----------9--9--9--9--9--9--9--9--9--9--9--9-|
A-9-----------9--9--9--9--9--9--9--9--9--9--9--9-|
E-7-----------7--7--7--7--7--7--7--7--7--7--7--7-|
(Bridge 1)---------------------------------------->Bridge 1

(Verse 2)----------------------------------------------------->Verse 2
Guitar 1
e------------------------------------------------|
B------------------------------------------------|
G-9--9-----9--9-----9-----7--7-----7-------------|
D-9--9-----9--9-----9-----7--7-----7-------------|
A-7--7-----7--7-----7-----5--5-----5-------------|
E------------------------------------------------|

Guitar 2
e-0--0--0--0--0--0--0--0--0--0--0--0--0--0--0--0-|
B------------------------------------------------|
G------------------------------------------------|
D------------------------------------------------|
A------------------------------------------------|
E------------------------------------------------|

Guitar 1
e------------------------------------------------|
B------------------------------------------------|
G------------------------------------------------|
D-9--9--------7--7--------2--2-----2-----2--2----|
A-9--9--------7--5--------2--2-----2-----2--2----|
E-7--7--------5--5--------3--0-----0-----0--0----|

Guitar 2  !!!(each note is played twice so you pick 24 times on the 12th fret)!!! 
e12-12-12-12-12-12-12-12-12-12-12-12-12-12-12-12-|
B------------------------------------------------|
G------------------------------------------------|
D------------------------------------------------|
A------------------------------------------------|
E------------------------------------------------|

Guitar 1
e------------------------------------------------|
B------------------------------------------------|
G-9--9-----9--9-----9-----7--7-----7--7-----7----|
D-9--9-----9--9-----9-----7--7-----7--7-----7----|
A-7--7-----7--7-----7-----5--5-----5--5-----5----|
E------------------------------------------------|

Guitar 2
e-0--0--0--0--0--0--0--0--0--0--0--0--0--0--0--0-|
B------------------------------------------------|
G------------------------------------------------|
D------------------------------------------------|
A------------------------------------------------|
E------------------------------------------------|

Guitar 1
e------------------------------------------------|
B------------------------------------------------|
G------------------------------------------------|
D-9--9--------7--7--------2--2-----2-----2--2----|
A-9--9--------7--5--------2--2-----2-----2--2----|
E-7--7--------5--5--------3--0-----0-----0--0----|

Guitar 2  !!!(each note is played twice so you pick 24 times on the 12th fret)!!! 
e-12-12-12-12-12-12-12-12-12-12-12-12-12-12-12-12|
B------------------------------------------------|
G------------------------------------------------|
D------------------------------------------------|
A------------------------------------------------|
E------------------------------------------------|
(Verse 2)--------------------------------------------------->Verse 2

(Bridge 2)---------------------------------------->Bridge 2
Guitar 1
e------------------------------------------------|
B------------------------------------------------|
G-7--7--7--7--7--7--7--7--7--7--7--7--7--7--7--7-|
D-7--7--7--7--7--7--7--7--7--7--7--7--7--7--7--7-|
A-5--5--5--5--5--5--5--5--5--5--5--5--5--5--5--5-|
E------------------------------------------------|

Guitar 2
e------------------------------------------------|
B------------------------------------------------|
G-7--7--7--7--7--7--7--7--7--7--7--7--7--7--7--7-|
D-7--7--7--7--7--7--7--7--7--7--7--7--7--7--7--7-|
A-5--5--5--5--5--5--5--5--5--5--5--5--5--5--5--5-|
E------------------------------------------------|

Guitar 1
e------------------------------------------------|
B------------------------------------------------|
G------------------------------------------------|
D-10-10-10-10-10-10-10-10-10-10-10-10-10-10-10-10|
A-10-10-10-10-10-10-10-10-10-10-10-10-10-10-10-10|
E-8--8--8--8--8--8--8--8--8--8--8--8--8--8--8--8-|

Guitar 2
e------------------------------------------------|
B------------------------------------------------|
G------------------------------------------------|
D-10-10-10-10-10-10-10-10-10-10-10-10-10-10-10-10|
A-10-10-10-10-10-10-10-10-10-10-10-10-10-10-10-10|
E-8--8--8--8--8--8--8--8--8--8--8--8--8--8--8--8-|

Guitar 1
e------------------------------------------------|
B------------------------------------------------|
G-7--7--7--7--7--7--7--7--7--7--7--7--7--7--7--7-|
D-7--7--7--7--7--7--7--7--7--7--7--7--7--7--7--7-|
A-5--5--5--5--5--5--5--5--5--5--5--5--5--5--5--5-|
E------------------------------------------------|

Guitar 2
e------------------------------------------------|
B------------------------------------------------|
G-7--7--7--7--7--7--7--7--7--7--7--7--7--7--7--7-|
D-7--7--7--7--7--7--7--7--7--7--7--7--7--7--7--7-|
A-5--5--5--5--5--5--5--5--5--5--5--5--5--5--5--5-|
E------------------------------------------------|

Guitar 1
e------------------------|
B------------------------|
G------------------------|
D-10-10-10-10-10-10-10-10|
A-10-10-10-10-10-10-10-10|
E-8--8--8--8--8--8--8--8-|
(Bridge 2)----------------------------------------->Bridge 2

(Solo)------------------------------------------------------->solo
Guitar 1
e------------------------|
B------------------------|
G-7--7--7--7--7--7--7--7-|
D-7--7--7--7--7--7--7--7-|
A-5--5--5--5--5--5--5--5-|
E------------------------|

e------------------------------------------------|
B------------------------------------------------|
G-7--7--7--7--7--7--7--7--7--7--7--7--7--7--7--7-|
D-7--7--7--7--7--7--7--7--7--7--7--7--7--7--7--7-|
A-5--5--5--5--5--5--5--5--5--5--5--5--5--5--5--5-|
E------------------------------------------------|

Guitar 2
e------------------------------------------------|
B------------------------------------------------|
G-------------------------0////////////////////12|
D-------------------------0////////////////////12|
A------------------------------------------------|
E------------------------------------------------|

Guitar 1
e------------------------------------------------|
B------------------------------------------------|
G------------------------------------------------|
D-2-----2-----7-----7-----9--9-----9-------------|
A-0-----0-----7-----7-----9--9-----9-------------|
E-0-----0-----5-----5-----7--7-----7-------------|

Guitar 2
e----------------7-----7----------------------------------|
B----------8-10----------10--8--8--8-----------8----------|
G-9-----9-----------------------------9-----9-----9--7--9-|
D---------------------------------------------------------|
A---------------------------------------------------------|
E---------------------------------------------------------|

Guitar 1
e------------------------------------------------|
B------------------------------------------------|
G-------------7-----7-----9--9-----9-------------|
D-9-----9-----7-----7-----9--9-----9-------------|
A-9-----9-----5-----5-----7--7-----7-------------|
E-7-----7----------------------------------------|

Guitar 2
e----------------------7-----7--10--7-----7---10-|
B----------------8-10----------------------------|
G----7--9-----9----------------------------------|
D-9----------------------------------------------|
A------------------------------------------------|
E------------------------------------------------|

e-7-----7-10---7------7-10--7--7---------------------|
B--------------------------------10--8-10--8---------|
G---------------------------------------------9--7--9|
D----------------------------------------------------|
A----------------------------------------------------|
E----------------------------------------------------|
(Solo)------------------------------------------------------>Solo

(Verse 3)----------------------------------------->verse 3
Guitar 1
e------------------------------------------------|
B------------------------------------------------|
G-9-----------------------7----------------------|
D-9-----------------------7----------------------|
A-7-----------------------5----------------------|
E------------------------------------------------|

Guitar 2 !!!(The first power chord is played with the solo distortion)!!!
e------------------------------------------------|
B------------------------------------------------|
G-9///////////0-----------7--7////////0----------|
D-9///////////0-----------7--7////////0----------|
A-7///////////0-----------5--5////////0----------|
E------------------------------------------------|

Guitar 1
e------------------------------------------------|
B------------------------------------------------|
G------------------------------------------------|
D-9-----------7-----2--2-----2-------------------|
A-9-----------7-----2--2-----2-------------------|
E-7-----------5-----3--0-----0-------------------|

Guitar 2
e------------------------------------------------|
B------------------------------------------------|
G------------------------------------------------|
D-9-----------7-----2--2-----2-------------------|
A-9-----------7-----2--2-----2-------------------|
E-7-----------5-----3--0-----0-------------------|

Guitar 1
e------------------------------------------------|
B------------------------------------------------|
G-9-----------------------7----------------------|
D-9-----------------------7----------------------|
A-7-----------------------5----------------------|
E------------------------------------------------|

Guitar 2
e------------------------------------------------|
B------------------------------------------------|
G-9///////////0-----------7--7////////0----------|
D-9///////////0-----------7--7////////0----------|
A-7///////////0-----------5--5////////0----------|
E------------------------------------------------|

Guitar 1
e------------------------------------------------|
B------------------------------------------------|
G------------------------------------------------|
D-9-----------7-----2--2-----2-------------------|
A-9-----------7-----2--2-----2-------------------|
E-7-----------5-----3--0-----0-------------------|

Guitar 2
e------------------------------------------------|
B------------------------------------------------|
G------------------------------------------------|
D-9-----------7-----2--2-----2-------------------|
A-9-----------7-----2--2-----2-------------------|
E-7-----------5-----3--0-----0-------------------|
(Verse 3)----------------------------------------->Verse 3

(Outro)----------------------------------------------------->Outro
Guitar 1
e------------------------------------------------|
B------------------------------------------------|
G------------------------------------------------|
D-2-----2-----7-----7-----9--9-----9-------------|
A-0-----0-----7-----7-----9--9-----9-------------|
E-0-----0-----5-----5-----7--7-----7-------------|

Guitar 2
e12-12-12-12-10-10-10-10-12-12-12-12-------------|
B12-12-12-12-12-12-12-12-12-12-12-12-------------|
G------------------------------------------------|
D------------------------------------------------|
A------------------------------------------------|
E------------------------------------------------|

Guitar 1
e------------------------------------------------|
B------------------------------------------------|
G-------------7-----7-----9--9-----9-------------|
D-9-----9-----7-----7-----9--9-----9-------------|
A-9-----9-----5-----5-----7--7-----7-------------|
E-7-----7----------------------------------------|

Guitar 2
e12-12-12-12-10-10-10-10-12-12-12-12-------------|
B12-12-12-12-12-12-12-12-12-12-12-12-------------|
G------------------------------------------------|
D------------------------------------------------|
A------------------------------------------------|
E------------------------------------------------|

Guitar 1
e------------------------------------------------|
B------------------------------------------------|
G------------------------------------------------|
D-2-----2-----7-----7-----9--9-----9-------------|
A-0-----0-----7-----7-----9--9-----9-------------|
E-0-----0-----5-----5-----7--7-----7-------------|

Guitar 2
e12-12-12-12-10-10-10-10-12-12-12-12-------------|
B12-12-12-12-12-12-12-12-12-12-12-12-------------|
G------------------------------------------------|
D------------------------------------------------|
A------------------------------------------------|
E------------------------------------------------|

Guitar 1
e------------------------------------------------|
B------------------------------------------------|
G-------------7-----7-----9--9-----9-------------|
D-9-----9-----7-----7-----9--9-----9-------------|
A-9-----9-----5-----5-----7--7-----7-------------|
E-7-----7----------------------------------------|

Guitar 2
e12-12-12-12-10-10-10-10-12-12-12-12-------------|
B12-12-12-12-12-12-12-12-12-12-12-12-------------|
G------------------------------------------------|
D------------------------------------------------|
A------------------------------------------------|
E------------------------------------------------|

Guitar 1
e------------------------------------------------|
B------------------------------------------------|
G------------------------------------------------|
D-2-----2-----7-----7-----9--9-----9-------------|
A-0-----0-----7-----7-----9--9-----9-------------|
E-0-----0-----5-----5-----7--7-----7-------------|

Guitar 2
e------------------------------------------------|
B------------------------------------------------|
G-9--9-----9-11-9-----9--9-----9-11b9------------|
D-9--9-----9----9-----9--9-----9----9------------|
A------------------------------------------------|
E------------------------------------------------|

Guitar 1
e------------------------------------------------|
B------------------------------------------------|
G-------------7-----7-----9--9-----9-------------|
D-9-----9-----7-----7-----9--9-----9-------------|
A-9-----9-----5-----5-----7--7-----7-------------|
E-7-----7----------------------------------------|

Guitar 2
e------------------------------------------------|
B------------------------------------------------|
G-9--9-----9-11b9-----7--9-----9-----------------|
D-9--9-----9----9-----7--9-----9-----------------|
A------------------------------------------------|
E------------------------------------------------|

Guitar 1
e------------------------------------------------|
B------------------------------------------------|
G------------------------------------------------|
D-2-----2-----7-----7-----9--9-----9-------------|
A-0-----0-----7-----7-----9--9-----9-------------|
E-0-----0-----5-----5-----7--7-----7-------------|

Guitar 2
e------------------------------------------------|
B------------------------------------------------|
G-9--9-----9-11-9-----9--9-----9-11b9------------|
D-9--9-----9----9-----9--9-----9----9------------|
A------------------------------------------------|
E------------------------------------------------|

Guitar 1
e------------------------------------------------|
B------------------------------------------------|
G-------------7-------7---7----8---9-------------|
D-9-----9-----7-------7---7----8---9-------------|
A-9-----9-----5-------5---5----6---7-------------|
E-7-----7----------------------------------------|

Guitar 2
e----------------------------------9-------------|
B----------------------------------9-------------|
G-9--9-----9-11b9-----7---7----8---9-------------|
D-9--9-----9----9-----7---7----8---9-------------|
A------------------------------------------------|
E------------------------------------------------|
(Outro)----------------------------------------------------->Outro

Order

Intro
Verse 1
Bridge 1
Verse 2
Bridge 1
Chorus
Verse 2
Bridge 1
Chorus
Bridge 2
Solo
Verse 3
Chorus
Outro
Bridge 1





Comments


Popular Sahara Hotnights tabs & chords
Alright, Alright 1 Bass Tabs
On Top Of Your World Bass Tabs
Drive Dead Slow Chords
On Top Of Your World Chords
Stay/Stay Away Chords
Fire Alarm Tabs
Impressed By Me Tabs
Walk On The Wire Tabs
In Private Ukulele
Visit To Vienna Ukulele


Song lyrics



↑ Back to top | Tablatures and chords are parodies/interpretations of the original songs. You may use it for private study, scholarship, research or language learning purposes only
© 2014 AZChords.com Contact us | Privacy policy | DMCA | Add/correct tabs | Request tabs | Top 50 tabs