» » »

Sagi Rei, Free Tabs (ver.1)

Artists:  A B C D E F G H I J K L M N O P Q R S T U V W X Y Z # 

Free Tabs (ver.1)

Sagi Rei Tabs
 Rating:
4.4/5 (7 votes)
Free lessons Tabs too difficult? Try these video lessons and learn fast
1
                
Main Riff:

e|-------7-8---5-----------------------------------0----------5------5--5----|
B|---------------5----5--8--5----8-8-7--------7-8----0----0--------5-------8-|
G|-----------------5----------5------------------------0---------4-----------|
D|---------------------------------------------------------------------------|
A|--0------------------------------------------------------------------------|
E|---------------------------------------0-----------------------------------|


e|-------7-8---5-----------------------------------0----------5------5----------|
B|---------------5----5--8--5----8-8-7--------7-8----0----0--------5----8-0-5-8-|
G|-----------------5----------5------------------------0---------4--------------|
D|------------------------------------------------------------------------------|
A|--0---------------------------------------------------------------------------|
E|---------------------------------------0--------------------------------------|



Chorus:

e|-0-----7-8--5---------------0---------------5-5-5-------------|
B|-2-------------5--8-8-8-7---0----7-8--5--0---------8----------|
G|-0--------------------------0---------------------------------|
D|-2--------------------------0---------------------------------|
A|-0--------------------------2---------------------------------|
E|----------------------------0---------------------------------|


Interlude:


Guitar 1:

e|------------------------------------------------------------------------------------|
B|------------------------------------------------------------------------------------|
G|---------9----------9-------9--------9-----------------------4-----4------------4---|
D|-----10-----10----------------10--------10----10------5---------------5-------5---5-|
A|--12------------11------10--------9---------9------7----7--6----5--------4--7-------|
E|------------------------------------------------------------------------------------|


e|--------------------------------------------------0-----------------------------|
B|-----------------------------------------------------0--------------------------|
G|-----9------------9------9----------9-----------------------4----4----------4---|
D|-------10-----10------------10---------10-----------------5--------5----5-----5-|
A|-12--------11--------10----------9--------9---7---------6------5------4---4-----|
E|--------------------------------------------------------------------------------|



Guitar 2:

e|--10/12-12-------------------10/12--10v-12--10v-12v---12~---10-------------|
B|------------10--8-10p8\5--5-------------------------------------10b12------|
G|---------------------------------------------------------------------------|
D|---------------------------------------------------------------------------|
A|---------------------------------------------------------------------------|
E|---------------------------------------------------------------------------|


Bridge:

Guitar 1:

e|--3----2----0---0-------------3----2---0---0------------------|
B|--3----3----2-----0-----------3----3---2---0-----4------------|
G|--0----2----0-------0---------0----2---0---0-----2------------|
D|--2----5----2---------0-------2----5---2---0-----5------------|
A|--3----2----0-----------2-----3----2---0---2-----2(x5)--------|
E|--------------------------0----------------0------------------|


Guitar 2(palm mute):

e|--------------------------------------------------------------------------------------|
B|--------------------------------------------------------------------------------------|
G|--------------------------------------------------------------------------------------|
D|-----4-5------4-5-4-------4-5-----4-5-4------4-5------4-5-4---------------------------|
A|--3------3-3--------3--2------2-2-------2--0-----0-0---------0------------------------|
E|----------------------------------------------------------------0-2-3-0-0-2-3-3-2-0-3-|
            
Submit corrections

comments powered by Disqus
↑ Back to top | Sagi Rei Tabs for Free. Lyrics for acoustic guitar and electric guitar. 1 Tablatures and chords are parodies/interpretations of the original songs. You may use it for private study, scholarship, research or language learning purposes only