» » »

Woodwell Tabs (ver.1)

Artists:  A B C D E F G H I J K L M N O P Q R S T U V W X Y Z # 

Woodwell Tabs (ver.1)

Saetia
Rating:
4/5 (2 votes)

Hard to play? Try these video lessons and learn fast.
                first off iknow some parts may be wrong whatever
help add/fix if you can

e----------------------------------5--------------|
B-------7p0--------------------7p5---5---5--------|
G-----------6h7-6p0--[x4]--------------------[x4]-|
D---7-7--------------------7-7---------7----------|   play 2x
A-------------------------------------------------|
E-------------------------------------------------|

this part idont know:
e-------------------------------------------------|
B-----------------------------9-9-----------------|
G----9-9-9-9--------------9-9-9-9-----------------| 
D----x-x-x-x------[?]-----x-x-x-x-----------------|
A----7-7-7-7--------------7-7-7-7-----------------|
E-------------------------------------------------|

first part again, then:
--------------------------------------------------|
--------------------------------------------------|
--9-9-9-9-9-9-9-9--12-12-12-12-12-12-12-12--------|
--x-x-x-x-x-x-x-x--x--x--x--x--x--x--x--x---------|
--7-7-7-7-7-7-7-7--10-10-10-10-10-10-10-10--------|
--------------------------------------------------|
pm.

--------------------------------------------------|
--------------------------------------------------|
-----7-7-7-7-7-7-7----7--7------------------------|
-----x-x-x-x-x-x-x----x--x------------------------|
-----5-5-5-5-5-5-5----5--5------------------------|
--------------------------------------------------|
pm.
            
Hard to play? Try these video lessons and learn fast. | Correct




comments powered by Disqus
↑ Back to top | Tablatures and chords are parodies/interpretations of the original songs. You may use it for private study, scholarship, research or language learning purposes only