» » »

The Sweetness And The Light Bass tabs (ver.1)

Artists:  A B C D E F G H I J K L M N O P Q R S T U V W X Y Z # 

The Sweetness And The Light Bass tabs (ver.1)

Saetia
Rating:
5/5 (2 votes)

Hard to play? Try these video lessons and learn fast.
                Saetia - The Sweetness and the Light
Tuning: GDAD

G|-------------------9-7---------|
D|-7-7-7-6-6-6---4-7-------------|
A|-------------4-----------------| 12x
D|-------------------------------|

G|------9-7-6/9-7-6-----------|
D|-7--------------------------|
A|----------------------------| 20x
D|----------------------------|

G|-------------4-6---------9-9-9-7-6------|
D|---4-7-7-7-7---------4-7----------------|
A|-5-----------------5--------------------| 4x
D|----------------------------------------|

G|-------|
D|---4-7-|
A|-5-----| 
D|-------|

G|-------9-9-9-7-6--|
D|---4-7------------|
A|-5----------------| 
D|------------------|

G|---------------------------|
D|-------------------4-7-7---|
A|-5-5-5-4-4-4-5-5-5---------| 8x
D|---------------------------|

G|-------------------------------6-----------9-----|
D|-7-7-7-7-7-7-6-6-6-6-6-6-6---4---7-----9-9-------|
A|---------------------------4---------------------| 4x
D|-----------------------------------------|

G|----------------------------|
D|-----------------4-7-6------|
A|-5---5-----5---5-------7----| 6x
D|----------------------------|

G|-----------------------------------------------------|
D|---------------4-7-6---------------4-7-6-------------|
A|-5---5-----5---------7-5---5-----5-------7-----------| 3x
D|-----------------------------------------------------|

| /  slide up
| \  slide down
| h  hammer-on
| p  pull-off
| ~  vibrato
| +  harmonic
| x  Mute note
            
Hard to play? Try these video lessons and learn fast. | Correct




comments powered by Disqus
↑ Back to top | Tablatures and chords are parodies/interpretations of the original songs. You may use it for private study, scholarship, research or language learning purposes only