» » »

Saetia, One Dying Wish Tabs (ver.1)

Artists:  A B C D E F G H I J K L M N O P Q R S T U V W X Y Z # 

One Dying Wish Tabs (ver.1)

Saetia Tabs
 Rating:
4.3/5 (6 votes)
One Dying Wish lessons Tabs too difficult? Try these video lessons and learn fast
                Band - Saetia
Song - One Dying Wish
Album - A Retrospective

Tuning: Drop D

One Of My Favorite Screamo Bands, This Is One Of Their Best!

I Have Put 2 Guitars For When Its Most Needed

. = Palm Mute
/ = Slide
p = Pull Off

Intro Guitar 1 
|----------------|
|----------------|
|-11/12-11111111-|
|-x--x--x-x-x-x--|
|-9-/10-9-9-9-9--|
|----------------|

Intro Guitar 2 
|---------------------------|--------------------------|
|---------------------------|--------------------------|
|-191919191919-141414141414-|-19191919-18-141414141414-|
|-x-x-x-x-x-x--x-x-x-x-x-x--|-x-x-x-x--x--x-x-x-x-x-x--|
|-171717171717-121212121212-|-17171717-16-121212121212-|
|---------------------------|--------------------------|

Intro Guitar 2 0.41 
(Little Variation At 0.41)
|--------------------------|
|--------------------------|
|-18/19--18--141414141414--|
|-x--x---x---x-x-x-x-x-x---|
|-16/17--16--121212121212--|
|--------------------------|

1.14 
|----x4----------|-----------------------|
|----------------|-----------------------|
|-11/12-11111111-|-----------------6--2--|
|-x--x--x-x-x-x--|-0--0000--0-2-0--x--x--|
|-9-/10-9-9-9-9--|-0--0000--0-2-0--4--0--|
|----------------|-0--0000--0-2-0--------|
                      ....

1.45 
|-----------------|
|-----------------|
|-----------6--2--|
|-0-0-2--0--x--x--|
|-0-0-2--0--4--0--|
|-0-0-2--0--------|

Clean Section

Guitar 2 1.49
|--------------------------------|
|--------------------------------|
|-6666666666666666-7777777777777-|
|-4444444444444444-4444444444444-|
|--------------------------------|
|--------------------------------|
  ...............................

Guitar 1 2.02
|----------------------------------------------------------------|
|----------------------------------------------------------------|
|----------------------------------------------------------------|
|-1414141414141414-12121212-11111111-77777777--11111111-12121212-|
|-1212121212121212-10101010-9-9-9-9--55555555--9-9-9-9--10101010-|
|----------------------------------------------------------------|
  ..............................................................

2.34 
|---------------------------------------------|
|---------------------------------------------|
|---------------------------11111111-14141414-|
|-444444444444-000000000000-x-x-x-x--x-x-x-x--|
|-444444444444-000000000000-9-9-9-9--12121212-|
|-444444444444-000000000000-------------------|

3.15 
|-------------------|-----------------------------|
|-------------------|-----------------------------|
|-------------------|----------------191919191919-|
|-4--5--0---0-0-0-0-|-4--5--0---0-0--x-x-x-x-x-x--|
|-4--5--0---0-0-0-0-|-4--5--0---0-0--171717171717-|
|-4--5--0---0-0-0-0-|-4--5--0---0-0---------------|


Clean Outro Section

Guitar 1 4.02
|-------------|
|-------------|
|-6-6-6-7-7p6-|
|-------------|
|-------------|
|-------------|
  . . .
Guitar 2 4.11
|------------|
|------------|
|-11-12-11-7-|
|------------|
|------------|
|------------|

That Was A Beast To Tab!

Hope You Enjoyed That!

Rate & Comments Would Make My Day!
            
Submit corrections

comments powered by Disqus
↑ Back to top | Saetia Tabs for One Dying Wish. Lyrics for acoustic guitar and electric guitar. Tablatures and chords are parodies/interpretations of the original songs. You may use it for private study, scholarship, research or language learning purposes only