» » »

Saetia, Notres Langues Nous Trompent Tabs (ver.2)

Artists:  A B C D E F G H I J K L M N O P Q R S T U V W X Y Z # 

Notres Langues Nous Trompent Tabs (ver.2)

Saetia Tabs
 Rating:
4.2/5 (5 votes)
Notres Langues Nous Trompent lessons Tabs too difficult? Try these video lessons and learn fast
1
                -------------------------------------------------------------------------------
                        Saetia - Notres Langues Nous Trompent
-------------------------------------------------------------------------------


; -> play fast and alot
/ -> slide

e|-----------------------------|
B|-----------------------------|
G|--22-33-22-33-2-3--55-33-2---|
D|--22-33-22-33-2-3--55-33-2---|
A|--00-11-00-11-0-1--33-11-0---|
D|--00-00-00-00-0-0--------0---|

e|------------------------------|
B|------------------------------|
G|---9---9---9-10-9--9----------|
D|-7-9-7-9-7-9-10-7--9----------|
A|-7-7-7-7-7-7-8-----7----------|
D|-7---7---7--------------------|

e|-----------------------------------------------------------|
B|-----------------------------------------------------------|
G|2223|-2222|-2223|-2222|-55-3-2--22-33-22-33-2-3--55-33-2---|
D|2223|-2222|-2223|-2222|-55-3-2--22-33-22-33-2-3--55-33-2---|
A|0001|-0000|-0001|-0000|-33-1-0--00-11-00-11-0-1--33-11-0---|
D|0000|-0000|-0000|-0000|------0--00-00-00-00-0-0--------0---|


e|---------------------------|---------------------------------------|
B|------5~----5~----6~---5---|---5--5--5--5--5---6--6--5--5----------|
G|----5-----5-----5----5--5--|----5--5--5--5------5--5--55-55--------|
D|--7-----7-----8----8-------|-7~--7--7--7--7--8~--8--8-------7~-----|
A|---------------------------|---------------------------------------|
D|---------------------------|---------------------------------------|


e|-------------------------------|
B|-------------------------------|
G|--99-99-9/101010-12------------|
D|--xx-xx-x/x-x-x--x-------------|
A|--77-77-7/8-8-8--10------------|
D|-------------------------------|

e|-------------------------------|
B|-------------------------------|
G|--14-15-10---------------------|
D|--x--x--x----------------------|
A|--12-13-8----------------------|
D|-------------------------------|
   ;;;;;;;;;;


e|-------------------------------|
B|-------------------------------|
G|-------------------------------|
D|--22222222------22-2/1---------|
A|--22222222------22-2/1---------|
D|--22222222------22-2/1---------|
   ;;;;;;;;;;
            
Submit corrections

comments powered by Disqus
↑ Back to top | Saetia Tabs for Notres Langues Nous Trompent. Lyrics for acoustic guitar and electric guitar. 1 Tablatures and chords are parodies/interpretations of the original songs. You may use it for private study, scholarship, research or language learning purposes only