» » »

Notres Langues Nous Trompent Tabs (ver.1)

Artists:  A B C D E F G H I J K L M N O P Q R S T U V W X Y Z # 

Notres Langues Nous Trompent Tabs (ver.1)

Saetia
Rating:
4/5 (2 votes)

Hard to play? Try these video lessons and learn fast.
                Tuning: Drop D

e|-----------------------------|
B|-----------------------------|
G|---14---14---14---14-5-5-3-3-| x4
D|-0-x--0-x--0-x--0-x--x-x-x-x-|
A|-0-13-0-13-0-13-0-13-3-3-1-1-|
D|-0----0----0----0------------|

e|--------------------------|
B|--------------------------|
G|---9---9---9-10---9-------|
D|-0-9-0-9-0-9-10-0-9-------| x4
A|-0-7-0-7-0-7-8--0-7-------|
D|-0---0---0------0---------|

e|--------------------------|
B|--------------------------|
G|--------------------------|
D|-0-0-0-8------------------| (guitar trade off)
A|-0-0-0-8------------------|
D|-0-0-0-8------------------|

e|-----------------------------|
B|-----------------------------|
G|---14---14---14---14-5-5-3-3-| x4
D|-0-x--0-x--0-x--0-x--x-x-x-x-|
A|-0-13-0-13-0-13-0-13-3-3-1-1-|
D|-0----0----0----0------------|

e|-----------------------------|
B|-----------------------------|
G|-14-14-14-14-14-15-15-10-10--|
D|-----------------------------| x4
A|-12-12-12-12-12-13-13-8--8---|
D|-----------------------------|

e|-----------------------------|
B|-----------------------------|
G|-9-9--9-9--9--1111-12-12-12--| x8
D|-----------------------------|
A|-7-7--7-7--7--8-8--10-10-10--|
D|-----------------------------|

e|-----------------------------|
B|-----------------------------|
G|-----------------------------| x6 (play fast)
D|-1414141414141414151515151010|
A|-1212121212121212131313138888|
D|-----------------------------|

e|-----------------------------|
B|-----------------------------|
G|-----------------------------|
D|-2-2--2-2--2--3-3--4-4-4-----| x4
A|-2-2--2-2--2--3-3--4-4-4-----|
D|-2-2--2-2--2--3-3--4-4-4-----|

then strike the E chord for the ending.
            
Hard to play? Try these video lessons and learn fast. | Correct




comments powered by Disqus
↑ Back to top | Tablatures and chords are parodies/interpretations of the original songs. You may use it for private study, scholarship, research or language learning purposes only