» » »

Saetia, An Open Letter Tabs (ver.1)

Artists:  A B C D E F G H I J K L M N O P Q R S T U V W X Y Z # 

An Open Letter Tabs (ver.1)

Saetia Tabs
Rating:
0/5 (0 votes)
An Open Letter lessons Tabs too difficult? Try these video lessons and learn fast
                SAETIA - AN OPEN LETTER

    e|-----------|
    b|-----------|
GTR G|-2p0-----3-|
 1  D|-----2h3---| x2
    A|-----------|
    D|-----------|

    e|------------------------------------------|
    b|------------------------------------------|
GTR G|-7-7-7-9-9-9-10-10-10-2p0-----3-2p0-----3-|
1+2 D|--------------------------2h3-------2h3---| x3
    A|-5-5-5-8-8-8-8--8--8----------------------|
    D|------------------------------------------|

    e|----------------------------------|
    b|----------------------------------|
GTR G|-7-7-7-9-9-9-10-10-10-2--0--2--3--|
 1  D|----------------------------------|
    A|-5-5-5-8-8-8-8--8--8--------------|
    D|----------------------------------|

    e|----------------------------------|
    b|----------------------------------|
GTR G|-7-7-7-9-9-9-10-10-10-------------|
 2  D|----------------------3--2--3--5--|
    A|-5-5-5-8-8-8-8--8--8--------------|
    D|----------------------------------|

    e|----------------------------------------------------|
    b|----------------------------------------------------|
GTR G|-10-------5------------------10/15--10/14--10/15\14-|
 1  D|----7-------2------2---0--0-------------------------| x4
    A|-8----8-8-3---3--3---3-0--0--8-/13--8-/12--8-/13\12-|
    D|-----------------------0--0-------------------------|

    e|------------------------------------------------------|
    b|-----10--------5--------------------------------------|
GTR G|-10------10-5------5-----------7------9------10-------| 
 2  D|-------------------------0--0-------------------------| x4
    A|-8----------3------------0--0--5------7------8--------|
    D|-------------------------0--0-------------------------|

    e|----------------------------------------------------|
    b|----------------------------------------------------|
GTR G|-10-------5-----------------------------------------|
 1  D|----7-------2------2---0--0-------------------------| 
    A|-8----8-8-3---3--3---3-0--0-------------------------|
    D|-----------------------0--0-------------------------|

    e|------------------------------------------------------|
    b|-----10--------5--------------------------------------|
GTR G|-10------10-5------5-----------7------9------10-------| 
 2  D|-------------------------0--0-------------------------| 
    A|-8----------3------------0--0--5------7------8--------|
    D|-------------------------0--0-------------------------|

    e|--------------------|
    b|--------------------|
GTR G|-2p0-----2-2--0-----|
 1  D|-----2h3---------3--|
    A|--------------------|
    D|--------------------|

    e|------------------------------------------|
    b|------------------------------------------|
GTR G|-7-7-7-9-9-9-10-10-10-2p0-----3-2p0-----3-|
1+2 D|--------------------------2h3-------2h3---| x3
    A|-5-5-5-8-8-8-8--8--8----------------------|
    D|------------------------------------------|

    e|------------------------------------------|
    b|----------------------------------6-------|
GTR G|-7-7-7-9-9-9-10-10-10-2--0--2--3--9-------|
 1  D|------------------------------------------|
    A|-5-5-5-8-8-8-8--8--8--------------8-------|
    D|------------------------------------------|

    e|------------------------------------------|
    b|------------------------------------------|
GTR G|-7-7-7-9-9-9-10-10-10-------------9-------|
 2  D|----------------------3--2--3--5--8-------|
    A|-5-5-5-8-8-8-8--8--8--------------10------|
    D|------------------------------------------|

    e|--5------5------|
    b|----6------6----|
GTR G|----------------|
 1  D|----------------| x8
    A|----------------|
    D|----------------|

    e|------5------5--|
    b|------6------6--|
GTR G|------9------9--|
 2  D|----------------| x8
    A|----------------|
    D|----------------|

    e|---5----5----5----5--|
    b|---6----6----6----6--|
GTR G|---9----9----9----9--|
 2  D|---------------------|
    A|---------------------|
    D|---------------------|

    e|----5-----5--|
    b|----6-----6--|
GTR G|----9-----9--|
1+2 D|-------------|
    A|-0-----0-----|
    D|-0-----0-----|
       PM    PM

    e|-------------------------------------------|
    b|-------------------------------------------|
GTR G|-14-14-141414-14-14-141414-9-9-999-5-5-555-|
1+2 D|-------------------------------------------| x8
    A|-12-12-121212-12-12-121212-8-8-888-3-3-333-|
    D|-------------------------------------------|

    e|----5-----5--|
    b|----6-----6--|
GTR G|----9-----9--|
1+2 D|-------------|
    A|-0-----0-----|
    D|-0-----0-----|
       PM    PM

    e|-5-(held from last riff)-------------------|
    b|-6-----------------------------------------|
GTR G|-9-----------------------------------------|
 1  D|-------------------------------------------|
    A|-------------------------------------------|
    D|-------------------------------------------|

    e|-------------------------------------------|
    b|-------------------------------------------|
GTR G|-------------------------------------------|
 2  D|-0------------------------0----------------|
    A|-0--------------------0-0-0----------------|
    D|-0--------------------0-0-0----------------|
                            P M

    e|-55-55-5555--5-5-5-5\-|
    b|----------------------|
GTR G|----------------------|
 1  D|----------------------|
    A|----------------------|
    D|----------------------|

    e|-(feedback)-----------|
    b|----------------------|
GTR G|----------------------|
 2  D|----------------------|
    A|----------------------|
    D|----------------------|

    e|--5------5------|
    b|----6------6----|
GTR G|----------------|
 1  D|----------------| x5
    A|----------------|
    D|----------------|

    e|------5------5--|
    b|------6------6--|
GTR G|------9------9--|
 2  D|----------------| x5
    A|----------------|
    D|----------------|

    e|--5-------------|
    b|----6-----------|
GTR G|----------------|
 1  D|----------------| 
    A|----------------|
    D|----------------|

    e|------5------5--|
    b|------6------6--|
GTR G|------9------9--|
 2  D|----------------| 
    A|----------------|
    D|----------------|

    e|---------------------|
    b|---------------------|
GTR G|-feedback------------|
1+2 D|---------------------|
    A|---------------------|
    D|---------------------|

END
            
Submit corrections

comments powered by Disqus
↑ Back to top | Saetia Tabs for An Open Letter. Lyrics for acoustic guitar and electric guitar. Tablatures and chords are parodies/interpretations of the original songs. You may use it for private study, scholarship, research or language learning purposes only