» » »

Sadus, Torture Tabs (ver.1)

Artists:  A B C D E F G H I J K L M N O P Q R S T U V W X Y Z # 

Torture Tabs (ver.1)

Sadus Tabs
 Rating:
4/5 (4 votes)
Torture lessons Tabs too difficult? Try these video lessons and learn fast
1
                Band: Sadus
Tuning: E Standard

Riff A
|------------------------------------------------------------|
|------------------------------------------------------------|
|------------------------------------------------------------|
|------------------------------------------------------------|
|--7-7-7-7-7-7-7-7-10-8-7-8-7-7-7-7-7-7-7-7-7-7-7-7-7-7-7-7--|
|------------------------------------------------------------|

Riff B
|--------------------------------------------------------------|
|--------------------------------------------------------------|
|--------------------------------------------------------------|
|--------------------------------------------------------------|
|--9-9-9-9-9-9-9-9-12-10-9-10-9-9-9-9-9-9-9-9-9-9-9-9-9-9-9-9--|
|--------------------------------------------------------------|


Fill/Bridge
|------------------|
|------------------|
|------------------|
|--4--2------------|
|--2--0--5---------|
|--------3--0-0-0--|


Verse A
|----------------------------------|----------------------------------|
|----------------------------------|----------------------------------|
|----------------------------------|----------------------------------|
|----------------------------------|--4--2------------4--2------------|
|----------------------------------|--2--0--5---------2--0--5---------|
|--0-0-0-0-0-0-0-0-0-0-0-0-0-0-0-0-|--------3--0-0-0--------3--0-0-0--|


Fill 2
|----------------------------------|
|----------------------------------|
|----------------------------------|
|----------------------------------|
|------------------9-9-9-9-9-9-9-9-|
|--0-0-0-0-0-0-0-0-----------------|

Riff C
|-----------------------|
|-----------------------|
|-----------------------|
|-----------------------|
|--9--7--9--------------|
|--7--5--7--0-0-0-0-0-0-|


Verse B
|----------------------------------|
|----------------------------------|
|----------------------------------|
|----------------------------------|
|----------------------------------|
|--7-7-7-7-7-7-7-7-5-5-5-5-8-8-8-8-|


Riff E
|--------------------------|--------------------------|--------------------------|
|--------------------------|--------------------------|--------------------------|
|--------------------------|--------------------------|--------------------------|
|--------------------------|--------------------------|--------------------------|
|--9-----------9--7--9-----|--------9--7--9-----------|--9--9--9--7--7--10--9----|
|--7--0--0--0--7--5--7--0--|--0--0--7--5--7--0--0--0--|--7--7--7--5--5---8--7----|


End
|-----------------------------|
|-----------------------------|
|-----------------------------|
|-----------------------------|
|--9---7---5------7--5--4--2--|
|--7---5---3------5--3--2--0--|
            
Submit corrections

comments powered by Disqus
↑ Back to top | Sadus Tabs for Torture. Lyrics for acoustic guitar and electric guitar. 1 Tablatures and chords are parodies/interpretations of the original songs. You may use it for private study, scholarship, research or language learning purposes only