>
 >
Safety In Numbers

Safety In Numbers Guitar Tabs

Sadus - Safety In Numbers chords, tabs, tablatures, lyrics

Guitar lessons | Add/correct | Request | Top 50 tabs Artists:  A B C D E F G H I J K L M N O P Q R S T U V W X Y Z 0-9

Safety In Numbers Guitar Tabs – Sadus

CD, Sheet music, Poster

Do you like Safety In Numbers? Share with your friends now
Tabs
Band/Artist:Sadus
Year Formed:1984
Album:Elements Of Anger
Genre:Technical Death/Thrash Metal

I learned this song by ear, and I tabbed it out for you guys.

Key:
/=Slide Up
\=Slide Down
h=Hammer-Ons
p=Pull-Offs
~=Ring
.=Palm Mute
ph=Pinch Harmonic

Tuning: Eb

Clean Riff 1(0:00)

|----------------------------------|
|----------------------------------|
|----------------------------------|
|-----------------------------5-3-3|
|---------3~~~-----2~~~-----3------|
|0~~~------------------------------|

Clean Riff 2(0:12)

|--------------------|
|--------------------|
|------0---------0~--|
|----2---2~----3-----|
|--2---------3-------|
|0-------------------|

Clean Riff 3(0:46)(NOTE):This riff is the same thing as 2, but a few notes added.

|--------------------------------|
|--------------------------------|
|------0---0--------0------------|
|----2---2---0----3---3-3-3-3-3-0|
|--2------------3----------------|
|0-------------------------------|

Distorted Riff 1(1:02)

|---------------------------------------|
|---------------------------------------|
|---------------------------------------|
|-------------------------5555555335533-|
|2---2---5---5---2---2-----------------5|
|000000003333333300000000---------------|
  ... ... ... ... ... ... ..............

|---------------------------------------|-------|
|---------------------------------------|-------|
|---------------------------------------|-------|
|---------------------------------------|-------|
|2---2---5---5---3---3------------------|2~~~~~~| < Play this after playing
|0000000033333333111111113-3-3-3-5-5-5-5|0~~~~~~|   Distorted Riff 1 x2.
  ... ... ... ... ... .... . . . . . . .

Clean Riff 1(1:20)

Clean Riff 2(1:37)

Distorted Riff 1(1:53)

Distorted Riff 2(2:10)

|-------------------------------------------------------|
|-------------------------------------------------------|
|-------------------------------------------------------|
|-------------------------------------------------------|
|-------------------------------------------------------|
|0-0-0-0-0-0-0-0-0-0-0-0-0-0-0-0-0-0-191919191919191919\|
 . . . . . . . . . . . . . . . . . . .................

Distorted Riff 3(2:15)
GR1
|-----------------------------|--------------------------------------------|
|-----------------------------|----------------------------161413----------|
|3ph--------------------------|12-11-12--11-12--1212-11-12-------151412----|
|---5-4-5--4-5--55-4--5-7755--|----------------------------------------14ph|
|---------------------------7/|--------------------------------------------|
|-----------------------------|--------------------------------------------|

GR2
|--------------------------------------------|
|--------------------------------------------|
|--------------------------------------------|
|--------------------------------------------|
|------5/4\5-----4/5-----555-----4/5-----7755|
|0-0-0-3/2\3-0-0-2/3-0-0-333-0-0-2/3-0-0-5533|
 . . .       . .     . .     . .     . .

Distorted Riff 4(2:25)

|--------------------------------------------|
|--------------------------------------------|
|--------------------------------------------|
|--------------------------------------------|
|------5/4\5-----4/5-----555-----4/5-----7755|
|0-0-0-3/2\3-0-0-2/3-0-0-333-0-0-2/3-0-0-5533|
 . . .       . .     . .     . .     . .

Distorted Riff 5(2:44)

|----------------------------|
|----------------------------|
|----------------------------|
|----------------------------|
|--------2----------2h3--7755|
|0-3-2-0---3-2-0-2-3-----5533|
 . . . .   . . . . .
Distorted Riff 3(2:54)
(NOTE: Two of the guitarist play this riff one high octave and one low octave and the 
guitarist plays the rhythm)

Distorted Riff 4(3:04)

Distorted Riff 5(3:23)

Distorted Riff 6(3:33)

|---------------------------------|
|---------------------------------|
|---------------------------------|
|---------------------------------|
|2~~~~--77542~~~~--7-7-5-4-2~~~~--|
|0~~~~--55320~~~~--5-5-3-2-0~~~~--|

Clean Riff 4(3:44)

|------------|
|------------|
|---0---0-4-0|
|--3---3-----|
|-3---2------|
|------------|

Solo(4:00)I don`t feel like tabbing it :P

Solo Rhythm(4:00)

|---------------------------------------------------------------|
|---------------------------------------------------------------|
|---------------------------------------------------------------|
|---------------------------------------------------------------|
|2-----5---7-----2-----5---7-----2-----5---7-----2-----5---7-5-4|
|0-0-0-3-0-5-0-0-0-0-0-3-0-5000000-0-0-3-0-5-0-0-0-0-0-3-0-5-3-2|
   . .   .   . .   . .   .  .....  . .   .   . .   . .

|-------------------------------------------------------------------|
|-------------------------------------------------------------------|
|-------------------------------------------------------------------|
|--------------------------------5----------------------------------|
|2-----5---7-----2-----5-----7---3-2-----5---7-----2-----5-----7-5-4|
|0-0-0-3-0-5000000-0-0-3-0-0-5000--0-0-0-3-0-5000000-0-0-3-0-0-5-3-2|
   . .   .  .....  . .   . .  ...    . .   .  .....  . .   . .

Distorted Riff 7(4:31)
GR1
|-----------|     (NOTE: Guitarist one and two play GR1 part first, after
|-----------|      Guitarist two played GR1 part, he plays the GR2 next and
|-----------|      then back to GR1 and again GR2)
|-----------|
|2~~-5--7~--|
|0~~-3--5~--|

GR2
|-------------|
|-------------|
|-------------|
|-------------|
|2~~----------|
|0~~--3ph--0ph|

Distorted Riff 8(4:39)

|---------------------------|-----------------------------|
|---------------------------|-----------------------------|
|---------------------------|-----------------------------|
|---------------------------|-----------------------------|
|2-----------2-------9--5577|2-----------2-------5--991010|
|--3-2-0-2-3---3-00007003355|--3-2-0-2-3---3-0000300778-8-|
   . . . . .   . .... ..       . . . . .   . .... ..

Distorted Riff 9(4:54)

|-----------------------------------------------|
|-----------------------------------------------|
|-----------------------------------------------|
|-----------------------------------------------|
|2-----------2---2-----------2-3-2-----------3-2|
|--3-2-0-2-3---3---3-2-0-2-3-------3-2-0-2-3----|
   . . . . .   .   . . . . .       . . . . .

Distorted Riff 10(5:02)

|------------------------------------------------------------------------|
|------------------------------------------------------------------------|
|------------------------------------------------------------------------|
|------------------------------------------------------------------------|
|2----------2--------------2---------2h3-----------2----------2----------|
|-3-2-0-2-3--3-0-0-0-0-0-0--3-2-0-2-3---0-0-0-0-0-0-3-2-0-2-3--3-0-0-0-0-|
  . . . . .  . . . . . . .  . . . . .   . . . . . . . . . . .  . . . . .

|-----------------------------------------------------------------|
|-----------------------------------------------------------------|
|-----------------------------------------------------------------|
|-----------------------------------------------------------------|
|----2---------2-------------2---------2---------2---------3p2-3p2|
|0-0--3-2-0-2-3-3-0-0-0-0-0-0-3-2-0-2-3-3-2-0-2-3-3-2-0-2-3-------|
 . .  . . . . . . . . . . . . . . . . . . . . . . . . . . .

Distorted Riff 4(5:15)

Distorted Riff 5(5:34)

Distorted Riff 6(5:54)

Clean Riff 2(6:05)

Clean Riff 3(2:21)

Outro: Just listen to the end part.





Comments


Popular Sadus tabs & chords
Machines Bass Tabs
Fight Or Die Tabs
Hands Of Fate Tabs
Sadus Attack Tabs
Through The Eyes Of Greed Tabs
Torture Tabs
Twisted Face Tabs


Song lyrics



↑ Back to top | Tablatures and chords are parodies/interpretations of the original songs. You may use it for private study, scholarship, research or language learning purposes only
© 2014 AZChords.com Contact us | Privacy policy | DMCA | Add/correct tabs | Request tabs | Top 50 tabs