» » »

War Of The Hearts Tabs (ver.1)

Artists:  A B C D E F G H I J K L M N O P Q R S T U V W X Y Z # 

War Of The Hearts Tabs (ver.1)

Sade
Rating:
0/5 (0 votes)

Hard to play? Try these video lessons and learn fast.
                Sade - War of the Hearts



For the low E string, it helps to use the thumb to fret the notes.

  AM		   Gm7sus2   	

e|X---------------|5)---------------|  You might be able to stretch your pinky to play the A at
B|5---------------|3----------------|  5th fret high e string, but the chord already has an A at
G|6---------------|2----------------|  2nd fret G string. It sounds nice either way.
D|7---------------|3----------------|
A|X---------------|X----------------|
E|5---------------|3----------------|


Before Chorus:

  AM

e|X---------------|X----------------|
B|5---------------|5----------------|
G|6---------------|6----------------|
D|7---------------|7----------------|
A|X---------------|X----------------|
E|5---------------|5----------------|


  GM		   C7add9 CM	     DM		       DM7sus2

e|X---------------|X-----3)---------|5)---------------|5)---------------|
B|2---------------|3-----5----------|7----------------|5----------------|
G|4---------------|3-----5----------|7----------------|6----------------|
D|5---------------|2-----5----------|7----------------|7----------------|
A|X---------------|3-----3----------|5----------------|5----------------|
E|3---------------|X-----X----------|X----------------|X----------------|


Before Verse:

  GM		   C7add9 CM	     DM		       DM

e|X---------------|X-----3)---------|5)---------------|5)---------------|
B|2---------------|3-----5----------|7----------------|7----------------|
G|4---------------|3-----5----------|7----------------|7----------------|
D|5---------------|2-----5----------|7----------------|7----------------|
A|X---------------|3-----3----------|5----------------|7----------------|
E|3---------------|X-----X----------|X----------------|X----------------|


Very simple. This was my first tab. I tried to do the best I could with respect to 
timing, but still listen to get it right.
            
Hard to play? Try these video lessons and learn fast. | Correct




comments powered by Disqus
↑ Back to top | Tablatures and chords are parodies/interpretations of the original songs. You may use it for private study, scholarship, research or language learning purposes only