» » »

Sade, Turn My Back On You Bass tabs (ver.1)

Artists:  A B C D E F G H I J K L M N O P Q R S T U V W X Y Z # 

Turn My Back On You Bass tabs (ver.1)

Sade Tabs
 Rating:
4/5 (4 votes)
Turn My Back On You lessons Tabs too difficult? Try these video lessons and learn fast
1
                -----------------------------------------------------------
-----------------------------------------------------------


Tuning: Standard

G|----------------------------------------|
D|-------023----------------023-----------|
A|--3-33------31--------33--------31------|
E|--------------3-13----------------3-13--|(4x)

Repeat this pattern at transitions play...

G|-----------------------------------|
D|-----3----3---331-1----------------|
A|---3---3---3-----3--3--13----------|
E|-----------------------------------|(4x)
            
Submit corrections

comments powered by Disqus
↑ Back to top | Sade Bass for Turn My Back On You. Lyrics for acoustic guitar and electric guitar. 1 Tablatures and chords are parodies/interpretations of the original songs. You may use it for private study, scholarship, research or language learning purposes only