» » »

Sade, Sweetest Taboo Bass tabs (ver.1)

Artists:  A B C D E F G H I J K L M N O P Q R S T U V W X Y Z # 

Sweetest Taboo Bass tabs (ver.1)

Sade Tabs
 Rating:
4/5 (4 votes)
Sweetest Taboo lessons Tabs too difficult? Try these video lessons and learn fast
1
                Main:
g:---------------|
d:---------------|
a:---------------|
e:6-4-6---4---4-6|

"Sweetest Taboo" Part
g:-------------|
d:-------------|
a:--------4-6--|
e:6-4-6-------4|

Theres alot of little fills he does all the time
but im to lazy to tab out every one of them so 
you just figure them out

Bridge:(Slap)
g:---------------------7-7-7--------------------------------------7-7-7h9------7-7h10
d:-----------------------------------------------------------------------------------
a:----------------7-7--------0h5h7-0h5h7----------------------7-7---------0h5h7------
e:6-4-6-0h4h6-4-6------------------------0--6-4-6--0h4h6-4-6-------------------------

fill:Pop
g:8-8|
d:---|
a:---|
e----|
            
Submit corrections

comments powered by Disqus
↑ Back to top | Sade Bass for Sweetest Taboo. Lyrics for acoustic guitar and electric guitar. 1 Tablatures and chords are parodies/interpretations of the original songs. You may use it for private study, scholarship, research or language learning purposes only