» » »

Hang On To Your Love Bass tabs (ver.1)

Artists:  A B C D E F G H I J K L M N O P Q R S T U V W X Y Z # 

Hang On To Your Love Bass tabs (ver.1)

Sade
Rating:
0/5 (0 votes)

Tabs too difficult? Try these video lessons and learn fast.
                Tunning:G,D,A,E

Riff 1:
g:--------------------------------|
d:--------------------------------|
a:5-----5-------3-5-----5------3-5|
e:--3-5-----3-5-----3-5----3-5----|

Riff 1 w/fill:
g:-----------------|
d:----------5---5-0|
a:5-----5-7---7----|
e:--3-5------------|

fill 2:
g:---------|
d:---------|
a:------3-5|
e:5-5-5----|

Bridge:
g:---------------|
d:---------------|
a:5-5-7-8-------3|
e:----------3-5--|
            
Tabs too difficult? Try these video lessons and learn fast.




comments powered by Disqus
↑ Back to top | Tablatures and chords are parodies/interpretations of the original songs. You may use it for private study, scholarship, research or language learning purposes only