» » »

Feel No Pain Bass tabs (ver.1)

Artists:  A B C D E F G H I J K L M N O P Q R S T U V W X Y Z # 

Feel No Pain Bass tabs (ver.1)

Sade
Rating:
5/5 (1 vote)

Hard to play? Try these video lessons and learn fast.
                


Riff 1:
g:------------------------|
d:------------------------|
a:--5-------5-------------|
e:6---6-4-6----6-4-6-4-6-4|

g:----------------------|
d:----------------------|
a:--5--------5----------|
e:6--6-6-4-6---6-4-6-4-1|

g:-----------------------|
d:-----------------------|
a:--5-------5------------|
e:6---6-4-6---6-4-6-4-6-4|

g:-------------------|
d:-------------------|
a:--5-------5--------|
e:6---6-4-6---6-4-8-4|

Fill:
g:-----|
d:-----|
a:-----|
e:0h3//|
            
Hard to play? Try these video lessons and learn fast. | Correct




comments powered by Disqus
↑ Back to top | Tablatures and chords are parodies/interpretations of the original songs. You may use it for private study, scholarship, research or language learning purposes only