» » »

Sade, Bullet Proof Soul Bass tabs (ver.1)

Artists:  A B C D E F G H I J K L M N O P Q R S T U V W X Y Z # 

Bullet Proof Soul Bass tabs (ver.1)

Sade Tabs
Rating:
0/5 (0 votes)
Bullet Proof Soul lessons Tabs too difficult? Try these video lessons and learn fast
                Album:Love Deluxe

becuase i have a 110 gauge 4th string (when my normal 1 ripped thats
all they had and i just haven't gotten around to getting new 1)
So just figure out the tunning and then please tell me what it is so i
can post it.I think he uses synth in this song or it may just the type 
of amp hes use-ing.This tab goes righ thru.The chorus is tabbed in to 
parts because its to long to put together so just play each of them 
once.ThaTs why theres no times marked to play them.

Main riff:
g:----------------------|
d:----------------------|
a:----------------------|
e:7-7--7-7-7--7-7--7-7-7|X18

Chorus:Part1
g:---------------------------------------------|
d:---------------------------------------------|
a:---------------------------------------------|
e:5--5-5-5--5--5-5-5-7-7-2--2-2-2--2--2-2-2-4-4|

Chorus:Part2
g:--------------------------------------------|
d:--------------------------------------------|
a:--------------------------------------------|
e:5--5-5-5-3-5--5-5-5-7-7-2--2-2-2--2------5h6|

Main Riff:
g:----------------------|
d:----------------------|
a:----------------------|
e:7-7--7-7-7--7-7--7-7-7|X8

Chorus:Part1
g:----------------------------------------------|
d:----------------------------------------------|
a:----------------------------------------------|
e:5--5-5-5-3-5--5-5-5-7-7-2--2-2-2--2--2-2-2-4-4|

Chorus:Part2
g:-------------------------------------------------|
d:-------------------------------------------------|
a:-------------------------------------------------|
e:5--5-5-5-3-5--5-5-5-7-7-2--2-2-2--2------1212\\\\|

Bridge:
g:-----------------------------------------------------|
d:-----------------------------------------------------|
a:-----------------------------------------------------|
e:7---7-7-5-7---7-7-10-10-12---12-12-10-12--12-12-15-15|X2

Main Riff:
g:----------------------|
d:----------------------|
a:----------------------|
e:7-7--7-7-7--7-7--7-7-7|X8

Chorus:Part1
g:-------------------------------------------------|
d:----------------------------------------------5h7|
a:------------------------------------------5h7----|
e:5--5-5-5--5--5-5-5-7-7-2--2-2-2--2--2-2-2--------|

Chorus:Part2
g:----------------------------------------------|
d:----------------------------------------------|
a:----------------------------------------------|
e:5--5-5-5-3-5--5-5-5-7-7-2--2-2-2------1212\\\\|

Bridge\Guitar solo
g:------------------------------------------------------|
d:------------------------------------------------------|
a:------------------------------------------------------|
e:7---7-7-5-7---7-7-10-10-12---12-12-10-12---12-12-15-15|X10

That will take u right to the end of the song.
            

comments powered by Disqus
↑ Back to top | Sade Bass for Bullet Proof Soul. Lyrics for acoustic guitar and electric guitar. Tablatures and chords are parodies/interpretations of the original songs. You may use it for private study, scholarship, research or language learning purposes only