» » »

Sade, Black Night Bass tabs (ver.1)

Artists:  A B C D E F G H I J K L M N O P Q R S T U V W X Y Z # 

Black Night Bass tabs (ver.1)

Sade Tabs
 Rating:
4/5 (4 votes)
Black Night lessons Tabs too difficult? Try these video lessons and learn fast
                #  you feel that the content of this file may be violating copyright law, you may  #
#  not use the information displayed here in any way.                              #


Intro x2
G-----------------------------------------------------------------|
D------5------------5--7--5-----------------------------5---------|
A-----7--7--5---5--7--7----7--------------5--7------------7-------|
E-------------7---------------------------------------------------|

Verse x3 I Think But Otherwise Work Out Yourself
G---------------------------------------|
D---------------------------------------|
A---5--7-7-7-7-7-7-7--5--7-7-7-7-7-7-7--|
E---------------------------------------|

G-------------------------------------------------------------------------------------|
D------------4------------------------------------------------------------------------|
A--7--5--5--5--7--5--7--5------------------000000000000-------------------------------|
E------7--7--------------7--5---------3--------------------555555-333333-777777777777-|

Intro Again.

Just Keep Doing The Verse For The Solo's And Your Done :)
Have Fun!!
            
Submit corrections

comments powered by Disqus
↑ Back to top | Sade Bass for Black Night. Lyrics for acoustic guitar and electric guitar. Tablatures and chords are parodies/interpretations of the original songs. You may use it for private study, scholarship, research or language learning purposes only