>
 >
We Sing Along

We Sing Along Guitar Tabs

Sacrety - We Sing Along chords, tabs, tablatures, lyrics

Guitar lessons | Add/correct | Request | Top 50 tabs Artists:  A B C D E F G H I J K L M N O P Q R S T U V W X Y Z 0-9

We Sing Along Guitar Tabs – Sacrety

CD, Sheet music, Poster

Do you like We Sing Along? Share with your friends now
Tabs
These are my tabs for the song "We Sing Along" by Sacrety. Enjoy playing!


0:00 - 0:24
e|---------------------------------------------------|
H|---------------------------------------------------|
G|----10----10----10----10----10--10--10--10--10--10-|
D|1212--1212--1212--1212--1212--88--88--88--88--88---|
A|---------------------------------------------------|
D|---------------------------------------------------|

e|---------------------------------------------------|
H|---------------------------------------------------|
G|----10----10----10----10----10--10--10--10--10--10-|
D|1212--1212--1212--1212--1212--88--88--88--88--88---|
A|---------------------------------------------------|
D|---------------------------------------------------|

first guitar
e|---------------------------------------------------|
H|---------------------------------------------------|
G|----10----10----10----10----10--10--10--10--10--10-|
D|1212--1212--1212--1212--1212--88--88--88--88--88---|
A|---------------------------------------------------|
D|---------------------------------------------------|

second guitar
e|---------------------------------------------------|
H|---------------------------------------------------|
G|---------------------------------------------------|
D|000000000000000000000022223333---------------------|
A|-------------------------------1-------------------|
D|---------------------------------------------------|

first guitar
e|---------------------------------------------------|
H|---------------------------------------------------|
G|----10----10----10----10----10--10--10--10--10--10-|
D|1212--1212--1212--1212--1212--88--88--88--88--88---|
A|---------------------------------------------------|
D|---------------------------------------------------|

second guitar
e|---------------------------------------------------|
H|---------------------------------------------------|
G|---------------------------------------------------|
D|000000000000000000000022223333---------------------|
A|------------------------------1--------------------|
D|---------------------------------------------------|

0:25 - 0:40
e|---------------------------------|
H|---------------------------------|
G|---------------------------------|
D|0000---0000---8008~--8000---8008~|
A|0000---0000---8008~--8000---8008~|
D|0000---0000---8008~--8000---8008~|

0:41 - 1:04
e|-----------------------------------------------|
H|-----------------------------------------------|
G|-----------------------------------------------|
D|12-12--12-12--8-8--8-8--3-3--3-3--10-10--10-10-|
A|12-12--12-12--8-8--8-8--3-3--3-3--10-10--10-10-|
D|12-12--12-12--8-8--8-8--3-3--3-3--10-10--10-10-|

e|-----------------------------------------------|
H|-----------------------------------------------|
G|-----------------------------------------------|
D|12-12--12-12--8-8--8-8--3-3--3-3--10-10--10-10-|
A|12-12--12-12--8-8--8-8--3-3--3-3--10-10--10-10-|
D|12-12--12-12--8-8--8-8--3-3--3-3--10-10--10-10-|

1:05 - 1:29
e|------------------------------------------------|
H|------------------------------------------------|
G|------------------------------------------------|
D|0000-0000-8888-8888-3333-3333-10101010-10101010-|
A|0000-0000-8888-8888-3333-3333-10101010-10101010-|
D|0000-0000-8888-8888-3333-3333-10101010-10101010-|

e|-------------------------------------------------|
H|-------------------------------------------------|
G|-------------------------------------------------|
D|0000-0000-8888-8888-3333-3333-10101010-10101010\-|
A|0000-0000-8888-8888-3333-3333-10101010-10101010\-|
D|0000-0000-8888-8888-3333-3333-10101010-10101010\-|

1:30 - 1:57
first guitar
e|---------------------------------------------------|
H|---------------------------------------------------|
G|----10----10----10----10----10--10--10--10--10--10-|
D|1212--1212--1212--1212--1212--88--88--88--88--88---|
A|---------------------------------------------------|
D|---------------------------------------------------|

second guitar
e|---------------------------------------------------|
H|------------------------------11111111111111111111-|
G|------------------------------10101010101010101010-|
D|------------------------------8 8 8 8 8 8 8 8 8 8 -|
A|---------------------------------------------------|
D|---------------------------------------------------|

first guitar
e|----------------------------------------------|
H|--6--6--6--6--6-------------------------------|
G|-------------------10----10----10----10----10-|
D|33-33-33-33-33-1010--1010--1010--1010--1010---|
A|----------------------------------------------|
D|----------------------------------------------|

second guitar
e|----------------------------------------------|
H|666666666666666131313131313131313131313131313-|
G|555555555555555121212121212121212121212121212-|
D|333333333333333101010101010101010101010101010-|
A|----------------------------------------------|
D|----------------------------------------------|

first guitar
e|---------------------------------------------------|
H|---------------------------------------------------|
G|----10----10----10----10----10--10--10--10--10--10-|
D|1212--1212--1212--1212--1212--88--88--88--88--88---|
A|---------------------------------------------------|
D|---------------------------------------------------|

second guitar
e|---------------------------------------------------|
H|15151515151515151515151515151511111111111111111111-|
G|14141414141414141414141414141410101010101010101010-|
D|1212121212121212121212121212128 8 8 8 8 8 8 8 8 8 -|
A|---------------------------------------------------|
D|---------------------------------------------------|

first guitar
e|----------------------------------------------|
H|--6--6--6--6--6-------------------------------|
G|----------------------------------------------|
D|33-33-33-33-33-101010101010101010101010101010-|
A|---------------101010101010101010101010101010-|
D|---------------101010101010101010101010101010-|

second guitar
e|----------------------------------------------|
H|666666666666666131313131313131313131313131313-|
G|555555555555555121212121212121212121212121212-|
D|333333333333333101010101010101010101010101010-|
A|----------------------------------------------|
D|----------------------------------------------|

1:58 - 2:22
e|------------------------------------------------|
H|------------------------------------------------|
G|------------------------------------------------|
D|0000-0000-8888-8888-3333-3333-10101010-10101010-|
A|0000-0000-8888-8888-3333-3333-10101010-10101010-|
D|0000-0000-8888-8888-3333-3333-10101010-10101010-|

first guitar
e|-------------------------------------------------|
H|-------------------------------------------------|
G|-------------------------------------------------|
D|0000-0000-8888-8888-3333-3333-10101010-10101010\-|
A|0000-0000-8888-8888-3333-3333-10101010-10101010\-|
D|0000-0000-8888-8888-3333-3333-10101010-10101010\-|

second guitar
e|----------------------------------------|
H|----------------------------------------|
G|----------------------------------------|
D|12-12-12-12-8-8-8-8-3-3-3-3-10-10-10-10-|
A|12-12-12-12-8-8-8-8-3-3-3-3-10-10-10-10-|
D|12-12-12-12-8-8-8-8-3-3-3-3-10-10-10-10-|

2:23 - 2:50
e|---------------------------------------------------------|
H|---------------------------------------------------------|
G|---------------------------------------------------------|
D|8~10~000-000-0-0000-000-000--000--000-000-0-0000-000-000-|
A|8~10~000-000-0-0000-000-000--000--000-000-0-0000-000-000-|
D|8~10~000-000-0-0000-000-000--000--000-000-0-0000-000-000-|

first guitar
e|----------------------------------------------------------------|
H|----------------------------------------------------------------|
G|----------------------------------------------------------------|
D|--000--000-000-0-0000-000-000--000--000-000-0-0000-000-000-0000-|
A|--000--000-000-0-0000-000-000--000--000-000-0-0000-000-000-0000-|
D|--000--000-000-0-0000-000-000--000--000-000-0-0000-000-000-0000-|

second guitar
e|------------------------------------------------------------------------|
H|------------------------------------------------------------------------|
G|------------------------------------9h10p9------------------------------|
D|7~-----77710787-777-2h3p3/7-7771078~------77710787-777-2h3p2/7-7771078~-|
A|------------------------------------------------------------------------|
D|------------------------------------------------------------------------|

2:51 - 3:15
first guitar
e|------------------------------------------------|
H|------------------------------------------------|
G|------------------------------------------------|
D|0~---------8~--------3~-------10101010-10101010-|
A|0~---------8~--------3~-------10101010-10101010-|
D|0~---------8~--------3~-------10101010-10101010-|

e|-----------------------------------------------|
H|-----------------------------------------------|
G|-----------------------------------------------|
D|------------------------------10-10--10-10--10-|
A|------------------------------10-10--10-10--10-|
D|------------------------------10-10--10-10--10-|

first guitar
e|-------------------------------------------------|
H|-------------------------------------------------|
G|-------------------------------------------------|
D|0000-0000-8888-8888-3333-3333-10101010-10101010\-|
A|0000-0000-8888-8888-3333-3333-10101010-10101010\-|
D|0000-0000-8888-8888-3333-3333-10101010-10101010\-|

second guitar
e|----------------------------------------|
H|----------------------------------------|
G|----------------------------------------|
D|12-12-12-12-8-8-8-8-3-3-3-3-10-10-10-10-|
A|12-12-12-12-8-8-8-8-3-3-3-3-10-10-10-10-|
D|12-12-12-12-8-8-8-8-3-3-3-3-10-10-10-10-|

3:16 - 3:43
first guitar
e|---------------------------------------------------------------------|
H|--------13----------------13--------------13-------------------------|
G|10~10/141210910~109--10/1412109109---10/1412109~9--912p10p9h10p9-----|
D|-------------------10-------------10~------------10-------------1012~|
A|---------------------------------------------------------------------|
D|---------------------------------------------------------------------|

second guitar
e|---------------------------------------------------------------------|
H|---------------------------------------------------------------------|
G|---------------------------------------------------------------------|
D|0000---0000---8888---8888---3333---3333---10101010---10101010---0000-|
A|0000---0000---8888---8888---3333---3333---10101010---10101010---0000-|
D|0000---0000---8888---8888---3333---3333---10101010---10101010---0000-|

first guitar
e|---------------------------------------------------------------------|
H|--------13----------------13--------------13-------------------------|
G|10~10/141210910~109--10/1412109109---10/1412109~9--912p10p9h10p9-----|
D|-------------------10-------------10~------------10-------------1012~|
A|---------------------------------------------------------------------|
D|---------------------------------------------------------------------|

second guitar
e|---------------------------------------------------------------------|
H|---------------------------------------------------------------------|
G|---------------------------------------------------------------------|
D|0000---0000---8888---8888---3333---3333---10101010---10101010---0000-|
A|0000---0000---8888---8888---3333---3333---10101010---10101010---0000-|
D|0000---0000---8888---8888---3333---3333---10101010---10101010---0000-|

MFJ





Comments


Popular Sacrety tabs & chords
Sommer Chords
With All That I Am 1 Chords
Bounce Move Shout Tabs
God Of Wonders Tabs
Hallelujah Tabs
Its Gonna Be Good Tabs
Tell You More Tabs
Time Passed By Tabs
Sommer Ukulele
With All That I Am Ukulele


Song lyrics



↑ Back to top | Tablatures and chords are parodies/interpretations of the original songs. You may use it for private study, scholarship, research or language learning purposes only
© 2014 AZChords.com Contact us | Privacy policy | DMCA | Add/correct tabs | Request tabs | Top 50 tabs