» » »

Time Passed By Tabs (ver.1)

Artists:  A B C D E F G H I J K L M N O P Q R S T U V W X Y Z # 

Time Passed By Tabs (ver.1)

Sacrety
Rating:
0/5 (0 votes)

Tabs too difficult? Try these video lessons and learn fast.
                These are my tabs for the song "Time Passed By" by Sacrety. Enjoy playing!


0:00 - 0:13
e|-------------------------------------------------------|
H|-------------------------------------------------------|
G|-------------------------------------------------------|
D|--------00--222h3p233-0h33---00--222h3p233-0h33---00---|
A|--------005~-------33-0h33320005~-------33-0h3332000---|
D|--------00---------33-0h33---00---------33-0h33---00---|

0:14 - 0:40
e|---------------------------------------------------------------------|
H|---------------------------------------------------------------------|
G|---------------------------------------------------------------------|
D|00---00---00---3333333322222222-00---00---3333333322222222-00---00---|
A|00---00---00---3333333322222222-00---00---3333333322222222-00---00---|
D|00---00---00---3333333322222222-00---00---3333333322222222-00---00---|

0:41 - 1:00
e|---------------------------------------|
H|---------------------------------------|
G|---------------------------------------|
D|00--222h3p233-0h33--00--222h3p233-0h33-|
A|005~-------33-0h33--005~-------33-0h33-|
D|00---------33-0h33--00---------33-0h33-|

e|---------------------------------------|
H|---------------------------------------|
G|---------------------------------------|
D|00--222h3p233-0h33---00--222h3p233-0h33|
A|005~-------33-0h33---005~-------33-0h33|
D|00---------33-0h33---00---------33-0h33|

1:01 - 1:29
e|---------------------------------------------------------------------|
H|---------------------------------------------------------------------|
G|---------------------------------------------------------------------|
D|0~~~0~~~3~~~3~~~-------------0-0-000000000000000000000000000000003333|
A|0~~~0~~~3~~~3~~~-------------0-0-000000000000000000000000000000003333|
D|0~~~0~~~3~~~3~~~-------------0-0-000000000000000000000000000000003333|
                              |----------------p.m.---------------|

1:30 - 1:52
e|---------------------------------------|
H|---------------------------------------|
G|---------------------------------------|
D|00--222h3p233-0h33--00--222h3p233-0h33-|
A|005~-------33-0h33--005~-------33-0h33-|
D|00---------33-0h33--00---------33-0h33-|

e|-------------------------------------------|
H|-------------------------------------------|
G|-------------------------------------------|
D|00--222h3p233-0h33---00--222h3p233-0h33-0~-|
A|005~-------33-0h33---005~-------33-0h33-0~-|
D|00---------33-0h33---00---------33-0h33-0~-|

1:53 - 2:17
e|---------------------------------------------------------------|
H|---------------------------------------------------------------|
G|---------------------------------------------------------------|
D|---2~----------------------------------------------------------|
A|-------320---320-----320---320-----320---320-----320---320-----|
D|------0---0-0---002-0---0-0---002-0---0-0---002-0---0-0---002~-|

e|--------------------------------------------------------------------------|
H|--------------------------------------------------------------------------|
G|--------------------------------------------------------------------------|
D|---------------------------------------------------------0000222233335555-|
A|-320---320-----320---320-----320---320-----320---320-----0000222233335555-|
D|0---0-0---002-0---0-0---002-0---0-0---002-0---0-0---002~-0000222233335555-|
                                                          |------p.m.------|

2:18 - 2:36
e|-----------------------------------|
H|-----------------------------------|
G|-----------------------------------|
D|---10\-33-0h33--00--222h3p233-0h33-|
A|---10\-33-0h33--005~-------33-0h33-|
D|---10\-33-0h33--00---------33-0h33-|

e|---------------------------------------|
H|---------------------------------------|
G|---------------------------------------|
D|00--222h3p233-0h33---00--222h3p233-0h33|
A|005~-------33-0h33---005~-------33-0h33|
D|00---------33-0h33---00---------33-0h33|

2:37 - 2:51
e|-------------------|
H|-------------------|
G|-------------------|
D|0~~~0~~~3~~~3~~~00-|
A|0~~~0~~~3~~~3~~~00-|
D|0~~~0~~~3~~~3~~~00-|

MFJ
            
Tabs too difficult? Try these video lessons and learn fast.


comments powered by Disqus
↑ Back to top | Tablatures and chords are parodies/interpretations of the original songs. You may use it for private study, scholarship, research or language learning purposes only