» » »

Sacrety, Tell You More Tabs (ver.1)

Artists:  A B C D E F G H I J K L M N O P Q R S T U V W X Y Z # 

Tell You More Tabs (ver.1)

Sacrety Tabs
Rating:
0/5 (0 votes)
Tell You More lessons Tabs too difficult? Try these video lessons and learn fast
                These are my tabs to the song "Tell You More" by Sacrety. Enjoy playing!



0:00 - 0:05 (Keyboard)
e|--7-------------7---------|
H|----10-78---------10-78---|
G|7---------9---7---------9-|
D|--------------------------|
A|--------------------------|
D|--------------------------|

0:06 - 0:10
e|------------------------------------------------|
H|------------------------------------------------|
G|------------------------------------------------|
D|14-14p12h14-14p12h14-14p12h14141412-10-7-9h10p97|
A|14-14p12h14-14p12h14-14p12h14141412-10-7-9h10p97|
D|14-14p12h14-14p12h14-14p12h14141412-10-7-9h10p97|

0:11 - 0:22
e|------------------------------------------|
H|------------------------------------------|
G|------------------------------------------|
D|202022--202022--202022-10~12-202022-12~14-|
A|202022--202022--202022-10~12-202022-12~14-|
D|202022--202022--202022-10~12-202022-12~14-|

 |---------p.m.---------|     |-p.m.-|

0:23 - 0:33
e|-----------------------------------------------------------------------|
H|-----------------------------------------------------------------------|
G|-----------------------------------------------------------------------|
D|14-14p12h14-14p12h14-14p12h14141412-14-14p12h14-14p12h14-14p12h14141412|
A|14-14p12h14-14p12h14-14p12h14141412-14-14p12h14-14p12h14-14p12h14141412|
D|14-14p12h14-14p12h14-14p12h14141412-14-14p12h14-14p12h14-14p12h14141412|

e|------------------------------------------------|
H|------------------------------------------------|
G|------------------------------------------------|
D|14-14p12h14-14p12h14-14p12h14141412-10-7-9h10p97|
A|14-14p12h14-14p12h14-14p12h14141412-10-7-9h10p97|
D|14-14p12h14-14p12h14-14p12h14141412-10-7-9h10p97|

0:34 - 0:56
e|--------------------------------------------------------------|
H|--------------------------------------------------------------|
G|--------------------------------------------------------------|
D|2222222222222255555555555555-1010-1010-1010-1010-77-77-7777777|
A|2222222222222255555555555555-1010-1010-1010-1010-77-77-7777777|
D|2222222222222255555555555555-1010-1010-1010-1010-77-77-7777777|

e|--------------------------------------------------------------|
H|--------------------------------------------------------------|
G|--------------------------------------------------------------|
D|2222222222222255555555555555-1010-1010-1010-1010-77-77-7777777|
A|2222222222222255555555555555-1010-1010-1010-1010-77-77-7777777|
D|2222222222222255555555555555-1010-1010-1010-1010-77-77-7777777|

0:56 - 1:02
e|-----------------------------------------------------------------------|
H|-----------------------------------------------------------------------|
G|-----------------------------------------------------------------------|
D|14-14p12h14-14p12h14-14p12h14141412-14-14p12h14-14p12h14-14p12h14141412|
A|14-14p12h14-14p12h14-14p12h14141412-14-14p12h14-14p12h14-14p12h14141412|
D|14-14p12h14-14p12h14-14p12h14141412-14-14p12h14-14p12h14-14p12h14141412|

1:03 - 1:13
e|------------------------------------------|
H|------------------------------------------|
G|------------------------------------------|
D|202022--202022--202022-10~12-202022-12~14-|
A|202022--202022--202022-10~12-202022-12~14-|
D|202022--202022--202022-10~12-202022-12~14-|

 |---------p.m.---------|     |-p.m.-|

1:14 - 1:36
e|-----------------------------------------------------------------------|
H|-----------------------------------------------------------------------|
G|-----------------------------------------------------------------------|
D|14-14p12h14-14p12h14-14p12h14141412-14-14p12h14-14p12h14-14p12h14141412|
A|14-14p12h14-14p12h14-14p12h14141412-14-14p12h14-14p12h14-14p12h14141412|
D|14-14p12h14-14p12h14-14p12h14141412-14-14p12h14-14p12h14-14p12h14141412|

e|------------------------------------------------|
H|------------------------------------------------|
G|------------------------------------------------|
D|14-14p12h14-14p12h14-14p12h14141412-10-7-9h10p97|
A|14-14p12h14-14p12h14-14p12h14141412-10-7-9h10p97|
D|14-14p12h14-14p12h14-14p12h14141412-10-7-9h10p97|

e|-----------------------------------------------------------------------|
H|-----------------------------------------------------------------------|
G|-----------------------------------------------------------------------|
D|14-14p12h14-14p12h14-14p12h14141412-14-14p12h14-14p12h14-14p12h14141412|
A|14-14p12h14-14p12h14-14p12h14141412-14-14p12h14-14p12h14-14p12h14141412|
D|14-14p12h14-14p12h14-14p12h14141412-14-14p12h14-14p12h14-14p12h14141412|

e|------------------------------------------------|
H|------------------------------------------------|
G|------------------------------------------------|
D|14-14p12h14-14p12h14-14p12h14141412-10-7-9h10p97|
A|14-14p12h14-14p12h14-14p12h14141412-10-7-9h10p97|
D|14-14p12h14-14p12h14-14p12h14141412-10-7-9h10p97|

1:37 - 1:58
e|--------------------------------------------------------------|
H|--------------------------------------------------------------|
G|--------------------------------------------------------------|
D|2222222222222255555555555555-1010-1010-1010-1010-77-77-7777777|
A|2222222222222255555555555555-1010-1010-1010-1010-77-77-7777777|
D|2222222222222255555555555555-1010-1010-1010-1010-77-77-7777777|

e|--------------------------------------------------------------|
H|--------------------------------------------------------------|
G|--------------------------------------------------------------|
D|2222222222222255555555555555-1010-1010-1010-1010-77-77-7777777|
A|2222222222222255555555555555-1010-1010-1010-1010-77-77-7777777|
D|2222222222222255555555555555-1010-1010-1010-1010-77-77-7777777|

1:59 - 2:09
e|-------------------|
H|-------------------|
G|-------------------|
D|2~~4~5~~9~10~~9~7~~|
A|2~~4~5~~9~10~~9~7~~|
D|2~~4~5~~9~10~~9~7~~|

2:10 - 2:21
e|----------------------------------------------------------------|
H|----------------------------------------------------------------|
G|----------------------------------------------------------------|
D|12h141414-03~00-12h141414-03~00-12h141414-03~00-12h141414-03~00-|
A|12h141414-03~00-12h141414-03~00-12h141414-03~00-12h141414-03~00-|
D|12h141414-03~00-12h141414-03~00-12h141414-03~00-12h141414-03~00-|

2:22 - 2:35
e|-------------------------------------------------------|
H|-------------------------------------------------------|
G|-------------------------------------------------------|
D|7h999910~77-7h999910~77-7h999910~77-1010101012129914~~~|
A|---------77----------77----------77--------------------|
D|---------77----------77----------77--------------------|

         |p.m|       |p.m.|      |p.m.|

2:36 - 3:31
e|------------------------------------------------|
H|------------------------------------------------|
G|------------------------------------------------|
D|55555555555555-1010-1010-1010-1010-77-77-7777777|
A|55555555555555-1010-1010-1010-1010-77-77-7777777|
D|55555555555555-1010-1010-1010-1010-77-77-7777777|

e|--------------------------------------------------------------|
H|--------------------------------------------------------------|
G|--------------------------------------------------------------|
D|2222222222222255555555555555-1010-1010-1010-1010-77-77-7777777|
A|2222222222222255555555555555-1010-1010-1010-1010-77-77-7777777|
D|2222222222222255555555555555-1010-1010-1010-1010-77-77-7777777|

e|-------------------------------------------------------------|
H|-------------------------------------------------------------|
G|-------------------------------------------------------------|
D|22222--22222--55555--55555--1010-1010-1010-1010-77-77-7777777|
A|22222--22222--55555--55555--1010-1010-1010-1010-77-77-7777777|
D|22222--22222--55555--55555--1010-1010-1010-1010-77-77-7777777|

|p.m.| |p.m.| |p.m.| |p.m.|

e|----------------------------------------------------------------|
H|----------------------------------------------------------------|
G|----------------------------------------------------------------|
D|22222--22222--55555--55555--1010-1010-1010-1010-77-77-7777777-2~|
A|22222--22222--55555--55555--1010-1010-1010-1010-77-77-7777777-2~|
D|22222--22222--55555--55555--1010-1010-1010-1010-77-77-7777777-2~|

|p.m.| |p.m.| |p.m.| |p.m.|
            

comments powered by Disqus
↑ Back to top | Sacrety Tabs for Tell You More. Lyrics for acoustic guitar and electric guitar. Tablatures and chords are parodies/interpretations of the original songs. You may use it for private study, scholarship, research or language learning purposes only