>
 >
Schoolboy

Schoolboy Guitar Tabs

Sacrety - Schoolboy chords, tabs, tablatures, lyrics

Guitar lessons | Add/correct | Request | Top 50 tabs Artists:  A B C D E F G H I J K L M N O P Q R S T U V W X Y Z 0-9

Schoolboy Guitar Tabs – Sacrety

CD, Sheet music, Poster

Do you like Schoolboy? Share with your friends now
Tabs
These are my tabs for the song "Schoolboy" by Sacrety. Enjoy playing!

0:00 - 0:15
e|---------------------------------|
H|---------------------------------|
G|2-X-2-X-23-X-3-X-32-X-2-X-2-X----|
D|------------------------------35-|
A|------------------------------35-|
D|------------------------------35-|
repeat 1x

0:16 - 0:28
e|---------------------------------|
H|---------------------------------|
G|---------------------------------|
D|7-X-7-X-78-X-8-X-87-X-7-X-7-X-35-|
A|7-X-7-X-78-X-8-X-87-X-7-X-7-X-35-|
D|7-X-7-X-78-X-8-X-87-X-7-X-7-X-35-|

e|--------------------------------|
H|--------------------------------|
G|--------------------------------|
D|7-X-7-X-78-X-8-X-87-X-7-X-7-X-3-|
A|7-X-7-X-78-X-8-X-87-X-7-X-7-X-3-|
D|7-X-7-X-78-X-8-X-87-X-7-X-7-X-3-|

0:29 - 0:51
e|----------------------------------------------|
H|----------------------------------------------|
G|----------------------------------------------|
D|--7----78----87----73-5-7----78----87----73-5-|
A|--7----78----87----73-5-7----78----87----73-5-|
D|--7----78----87----73-5-7----78----87----73-5-|

e|---------------------------------|
H|---------------------------------|
G|---------------------------------|
D|7-X-7-X-78-X-8-X-87-X-7-X-7-X-35-|
A|7-X-7-X-78-X-8-X-87-X-7-X-7-X-35-|
D|7-X-7-X-78-X-8-X-87-X-7-X-7-X-35-|

0:52 - 1:05
e|------------------------------------------------------------|
H|------------------------------------------------------------|
G|------------------------------------------------------------|
D|777777778888888877777777333355557777777788888888333333330000|
A|777777778888888877777777333355557777777788888888333333330000|
D|777777778888888877777777333355557777777788888888333333330000|

1:06 - 1:36
e|--------------------------------------|
H|--------------------------------------|
G|7-X-7-X-77h88-X-8-X-88p77-X-7h8p7-X---|
D|-----------------------------------35-|
A|-----------------------------------35-|
D|-----------------------------------35-|
repeat 3x

1:37 - 1:50
e|------------------------------------------------------------|
H|------------------------------------------------------------|
G|------------------------------------------------------------|
D|777777778888888877777777333355557777777788888888333333330000|
A|777777778888888877777777333355557777777788888888333333330000|
D|777777778888888877777777333355557777777788888888333333330000|

1:51 - 2:18
e|--------------------------------------------|
H|--------------------------------------------|
G|--------------------------------------------|
D|000570000--000750005757000780000--00010108~-|
A|000--0000--000--000----000--0000--000-------|
D|000--0000--000--000----000--0000--000-------|

e|----------------------------------------|
H|----------------------------------------|
G|----------------------------------------|
D|000570000--000750005757000780000--000108|
A|000--0000--000--000----000--0000--000---|
D|000--0000--000--000----000--0000--000---|

2:19 - 2:48
e|------------------------------------------------------------|
H|------------------------------------------------------------|
G|------------------------------------------------------------|
D|777777778888888877777777333355557777777788888888333333330000|
A|777777778888888877777777333355557777777788888888333333330000|
D|777777778888888877777777333355557777777788888888333333330000|

e|------------------------------------------------------------|
H|------------------------------------------------------------|
G|------------------------------------------------------------|
D|777777778888888877777777333355557777777788888888333333330000|
A|777777778888888877777777333355557777777788888888333333330000|
D|777777778888888877777777333355557777777788888888333333330000|

MFJ





Comments


Popular Sacrety tabs & chords
Sommer Chords
With All That I Am Chords
Bounce Move Shout Tabs
God Of Wonders Tabs
Hallelujah Tabs
Hold On Tight Tabs
Its Gonna Be Good Tabs
Jesus Tabs
My Hope Tabs
Sommer Ukulele


Song lyrics



↑ Back to top | Tablatures and chords are parodies/interpretations of the original songs. You may use it for private study, scholarship, research or language learning purposes only
© 2014 AZChords.com Contact us | Privacy policy | DMCA | Add/correct tabs | Request tabs | Top 50 tabs