» » »

Sacrety, My Hope Tabs (ver.1)

Artists:  A B C D E F G H I J K L M N O P Q R S T U V W X Y Z # 

My Hope Tabs (ver.1)

Sacrety Tabs
 Rating:
4/5 (4 votes)
My Hope lessons Tabs too difficult? Try these video lessons and learn fast
1
                These are my tabs for the song "My Hope" by Sacrety. Enjoy playing!

0:00 - 0:09
e|---------------------------------------------------|
H|---------------------------------------------------|
G|---------------------------------------------------|
D|---------------------------------------------------|
A|------------3----------------------------3---------|
D|0056530-0305--0056530-03066530056530-0305--0056530-|

0:09 - 0:18
first guitar
e|---------------------------------------------------|
H|---------------------------------------------------|
G|---------------------------------------------------|
D|---------------------------------------------------|
A|------------3----------------------------3---------|
D|0056530-0305--0056530-03066530056530-0305--0056530-|

second guitar
e|--343------3----343------443---343------3----343---|
H|33---63-363-6-33---63-363---633---63-363-6-33---63-|
G|---------------------------------------------------|
D|---------------------------------------------------|
A|---------------------------------------------------|
D|---------------------------------------------------|

0:18 - 0:27
e|----------------------------------------|
H|----------------------------------------|
G|----------------------------------------|
D|----------------------------------------|
A|----------------------------------------|
D|0056530---0056530---0056530---0056530---|

0:27 - 0:37
e|---------------------------------------------------|
H|---------------------------------------------------|
G|------------5----------------------------5---------|
D|--------0305----------0306653--------0305----------|
A|---------------------------------------------------|
D|0056530-------0056530--------0056530-------0056530-|

0:38 - 0:55
first guitar
e|----------------------------------------|
H|----------------------------------------|
G|----------------------------------------|
D|888888810101010101010-------------------|
A|888888810101010101010-------------------|
D|888888810101010101010-0056530---0056530-|

repeat 1x

second guitar
e|------------------------343-------343---|
H|----------------------33---63---33---63-|
G|----------------------------------------|
D|----------------------------------------|
A|----------------------------------------|
D|----------------------------------------|

repeat 1x

0:56 - 1:07
first guitar
e|----------------------------------------------------------------|
H|----------------------------------------------------------------|
G|------------5---------------------------------------------------|
D|0056530-0305----------------------------------------------------|
A|-------------------------3----------------------------3---------|
D|-------------0056530-0305--0056530-03066530056530-0305--0056530-|

second guitar
e|---------------343------3----343------443---343------3----343---|
H|-------------33---63-363-6-33---63-363---633---63-363-6-33---63-|
G|----------------------------------------------------------------|
D|----------------------------------------------------------------|
A|----------------------------------------------------------------|
D|----------------------------------------------------------------|

1:08 - 1:16
e|----------------------------------------|
H|----------------------------------------|
G|----------------------------------------|
D|----------------------------------------|
A|----------------------------------------|
D|0056530----056530---0056530----056530---|

1:17 - 1:24
first guitar
e|---------------------------------------------------|
H|---------------------------------------------------|
G|---------------------------------------------------|
D|---------------------------------------------------|
A|------------3----------------------------3---------|
D|0056530-0305--0056530-03066530056530-0305--0056530-|

second guitar
e|10-10-10-10-10-10-10-10-10-10-10-10-10-10-10-10-10-|
H|---------------------------------------------------|
G|7 -7 -7 -7 -7 -7 -7 -7 -7 -7 -7 -7 -7 -7 -7 -7 -7 -|
D|---------------------------------------------------|
A|---------------------------------------------------|
D|---------------------------------------------------|

1:25 - 1:46
first guitar
e|-----------------------------------------|
H|-----------------------------------------|
G|-----------------------------------------|
D|888888810101010101010--------------------|
A|888888810101010101010--------------------|
D|888888810101010101010-0056530---0056530~~|

repeat 1x

second guitar
e|------------------------343-------343----|
H|----------------------33---63---33---63--|
G|-----------------------------------------|
D|-----------------------------------------|
A|-----------------------------------------|
D|-----------------------------------------|

repeat 1x

1:47 - 2:43
e|----------------------------------------------|
H|----------------------------------------------|
G|----------------------------------------------|
D|-0-0-30--0-0-5-53~--0-0-30--0-0-5-57~53p0-----|
A|-------03-3-3-------------03-3-3---------3p0--|
D|0-0----------------0-0----------------------53|

repeat 1x

e|------------------------------------------------|
H|------------------------------------------------|
G|------------------------------------------------|
D|-0-0-30--0-0-5-53~--0-0-30--0-0-5-57~---------0-|
A|-------03-3-3-------------03-3-3--------------0-|
D|0-0----------------0-0------------------------0-|

2:44 - 3:02
first guitar
e|----------------------------------------|
H|----------------------------------------|
G|----------------------------------------|
D|888888810101010101010-------------------|
A|888888810101010101010-------------------|
D|888888810101010101010-0056530---0056530-|

repeat 1x

second guitar
e|------------------------343-------343---|
H|----------------------33---63---33---63-|
G|----------------------------------------|
D|----------------------------------------|
A|----------------------------------------|
D|----------------------------------------|

repeat 1x

3:03 - 3:25
e|---------------------------------------------------------------------|
H|---------------------------------------------------------------------|
G|---------------------------------------------------------------------|
D|888888810101010101010888888810101010101010888888810101010101010----0~|
A|888888810101010101010888888810101010101010888888810101010101010----0~|
D|888888810101010101010888888810101010101010888888810101010101010----0~|

MFJ
            
Submit corrections

comments powered by Disqus
↑ Back to top | Sacrety Tabs for My Hope. Lyrics for acoustic guitar and electric guitar. 1 Tablatures and chords are parodies/interpretations of the original songs. You may use it for private study, scholarship, research or language learning purposes only