» » »

Sacrety, Jesus Tabs (ver.1)

Artists:  A B C D E F G H I J K L M N O P Q R S T U V W X Y Z # 

Jesus Tabs (ver.1)

Sacrety Tabs
 Rating:
4/5 (4 votes)
Jesus lessons Tabs too difficult? Try these video lessons and learn fast
1
                These are my tabs for the Song "Jesus" by Sacrety. Enjoy playing!

0:00 - 0:10
e|---------------------------------------|
H|---------------------------------------|
G|---------------------------------------|
D|0-0-033---0033-311-0-0-033---0033-311-0|
A|0-0-033---0033-311-0-0-033---0033-311-0|
D|0-0-033---0033-311-0-0-033---0033-311-0|

0:10 - 0:27
e|---------------------------------------|
H|---------------------------------------|
G|---------------------------------------|
D|---------------------------------------|
A|---------------------------------------|
D|---------------------------------------|

0:28 - 0:36
first guitar
e|----------------------|
H|----------------------|
G|-7----7----7----5/7---|
D|-7----7----7----5/7---|
A|-5----5----5----3/5---|
D|----------------------|
repeat 1x

second guitar
e|-----------------------------------|
H|-----------------------------------|
G|5-5-5777--5-5-5787--5-5-5777-5-5---|
D|---------------------------------0-|
A|-----------------------------------|
D|-----------------------------------|

0:37 - 0:55
e|---------------------------------------|
H|---------------------------------------|
G|---------------------------------------|
D|0-0-033---0033-311-0-0-033---0033-311-0|
A|0-0-033---0033-311-0-0-033---0033-311-0|
D|0-0-033---0033-311-0-0-033---0033-311-0|
repeat 1x

0:56 - 1:13
e|----------------------|
H|----------------------|
G|-7----7----7----5/7---|
D|-7----7----7----5/7---|
A|-5----5----5----3/5---|
D|----------------------|
repeat 3x

1:14 - 1:22
first guitar
e|----------------------|
H|----------------------|
G|-7----7----7----5/7---|
D|-7----7----7----5/7---|
A|-5----5----5----3/5---|
D|----------------------|
repeat 1x

second guitar
e|-----------------------------------|
H|-----------------------------------|
G|5-5-5777--5-5-5787--5-5-5777-5-5---|
D|---------------------------------0-|
A|-----------------------------------|
D|-----------------------------------|

1:23 - 1:51
e|---------------------------------------|
H|---------------------------------------|
G|---------------------------------------|
D|0-0-033---0033-311-0-0-033---0033-311-0|
A|0-0-033---0033-311-0-0-033---0033-311-0|
D|0-0-033---0033-311-0-0-033---0033-311-0|
repeat 2x

1:51 - 2:18
e|----------------|
H|------11~-------|
G|7~-10~---810\4~-|
D|----------------|
A|----------------|
D|----------------|
repeat 2x

2:19 - 
e|---------------------------------------------------------------------------|
H|---------------------------------------------------------------------------|
G|---------------------------------------------------------------------------|
D|0-0-033---0033-311-0-0-033---0033-311-0-0-033---0033-311-0-0-033---0033-311|
A|0-0-033---0033-311-0-0-033---0033-311-0-0-033---0033-311-0-0-033---0033-311|
D|0-0-033---0033-311-0-0-033---0033-311-0-0-033---0033-311-0-0-033---0033-311|

e|---------------------------|
H|---------------------------|
G|---------------------------|
D|0-0-033---0033-311-0-0-033-|
A|0-0-033---0033-311-0-0-033-|
D|0-0-033---0033-311-0-0-033-|

MFJ
            
Submit corrections

comments powered by Disqus
↑ Back to top | Sacrety Tabs for Jesus. Lyrics for acoustic guitar and electric guitar. 1 Tablatures and chords are parodies/interpretations of the original songs. You may use it for private study, scholarship, research or language learning purposes only