» » »

Sacrety, Hold On Tight Tabs (ver.1)

Artists:  A B C D E F G H I J K L M N O P Q R S T U V W X Y Z # 

Hold On Tight Tabs (ver.1)

Sacrety Tabs
 Rating:
4/5 (4 votes)
Hold On Tight lessons Tabs too difficult? Try these video lessons and learn fast
                These are my tabs for the song "Hold On Tight" by Sacrety. Enjoy playing!

0:00 - 1:18
e|------------------------------------|
H|------------------------------------|
G|------------------------------------|
D|444466776666779977777777119767642/44|
A|4444444466666666777777777 7767642/44|
D|4444444466666666777777777 7767642/44|

e|---------------------------|
H|---------------------------|
G|---------------------------|
D|446677666677997777777777776|
A|444444666666667777777777776|
D|444444666666667777777777776|

1:19 - 0:36
e|-------------------------------------------------------|
H|----7~----7~--------------------7~-----7~--------------|
G|-------------------------------------------------------|
D|2/44--2/44--4444667766666662/44--2/44---444466776666666|
A|2/44--2/44--4444667766666662/44--2/44---444466776666666|
D|2/44--2/44--4444667766666662/44--2/44---444466776666666|

0:37 - 0:55
e|----------------------------------------------------|
H|--------------------------------------------------7-|
G|-----------------6-6----4-4-------------------6-6-6-|
D|---4-4----7-7-------------------4-4----7-7--------4-|
A|--------------4-4-4-42-2-2--2--------------4-4-4-4--|
D|4-4-4-47-7-7-7---------------4-4-4-47-7-7-7---------|

0:56 - 1:13
e|-------------------------------------|
H|-------------------------------------|
G|-------------------------------------|
D|444466776666779977777777119767642/44|
A|4444444466666666777777777 7767642/44|
D|4444444466666666777777777 7767642/44|

e|---------------------------|
H|---------------------------|
G|---------------------------|
D|446677666677997777777777776|
A|444444666666667777777777776|
D|444444666666667777777777776|

1:14 - 1:31
e|------------------------------------------------------------|
H|------------------------------------------------------------|
G|------------------------------------------------------------|
D|2/44---4/77---7/1111---11\99---9\44---4/77---7/1111---11\99-|
A|2/44---4/77---7/1111---11\99---9\44---4/77---7/1111---11\99-|
D|2/44---4/77---7/1111---11\99---9\44---4/77---7/1111---11\99-|

1:32 - 1:49
e|-------------------------------------------------------|
H|----7~----7~--------------------7~-----7~--------------|
G|-------------------------------------------------------|
D|2/44--2/44--4444667766666662/44--2/44---444466776666666|
A|2/44--2/44--4444667766666662/44--2/44---444466776666666|
D|2/44--2/44--4444667766666662/44--2/44---444466776666666|

1:50 - 2:08
e|-------------------------------------|
H|-------------------------------------|
G|-------------------------------------|
D|444466776666779977777777119767642/44|
A|4444444466666666777777777 7767642/44|
D|4444444466666666777777777 7767642/44|

e|---------------------------|
H|---------------------------|
G|---------------------------|
D|446677666677997777777777776|
A|444444666666667777777777776|
D|444444666666667777777777776|

2:09 - 2:46
e|----------------------------------------------------------------|
H|----------------------------------------------------------------|
G|-------------------------------------------------------64-4-----|
D|2/4764--444-4---2/4764--444-4---2/4764--444-4---2/4764---7-764--|
A|------77-----75-------77-----75-------77-----75-------7-------7-|
D|----------------------------------------------------------------|

e|------------------------------------------------------------|
H|------------------------------------------------------------|
G|-----------------------64-4----------------------------64-4~|
D|2/4764--444-4---2/4764---7-764--2/4764--444-4---2/4764---7--|
A|------77-----75-------7-------7-------77-----75-------7-----|
D|------------------------------------------------------------|

2:47 -
e|-------------------------------------|
H|-------------------------------------|
G|-------------------------------------|
D|444466776666779977777777119767642/44-|
A|4444444466666666777777777 7767642/44-|
D|4444444466666666777777777 7767642/44-|
repeat 2x

e|--------------------------------|
H|--------------------------------|
G|--------------------------------|
D|446677666677997777777777-776-776|
A|444444666666667777777777-776-776|
D|444444666666667777777777-776-776|

MFJ
            
Submit corrections

comments powered by Disqus
↑ Back to top | Sacrety Tabs for Hold On Tight. Lyrics for acoustic guitar and electric guitar. Tablatures and chords are parodies/interpretations of the original songs. You may use it for private study, scholarship, research or language learning purposes only