» » »

Sacrety, Hallelujah Tabs (ver.1)

Artists:  A B C D E F G H I J K L M N O P Q R S T U V W X Y Z # 

Hallelujah Tabs (ver.1)

Sacrety Tabs
 Rating:
4/5 (4 votes)
Hallelujah lessons Tabs too difficult? Try these video lessons and learn fast
                These are my tabs for the song "Hallelujah" by Sacrety. Enjoy playing!


0:00 - 0:17
first guitar
e|----------------------------------------------------------------|
H|----------------------------------------------------------------|
G|----------------------------------------------------------------|
D|00-0h23XXXX3352-20--023XXXX3357\----023XXXX3352-20--023XXXX3357~|
A|00-0h23XXXX3352-20--023XXXX3357\----023XXXX3352-20--023XXXX3357~|
D|00-0h23XXXX3352-20--023XXXX3357\----023XXXX3352-20--023XXXX3357~|

second guitar
e|----------------------------------------------------------------|
H|----------------------------------------------------------------|
G|----------------------------------------------------------------|
D|----------------------7~------------------------------7~--------|
A|----------------------------------------------------------------|
D|----------------------------------------------------------------|

0:18 - 0:35
e|----------------------------------------------------------|
H|----------------------------------------------------------|
G|----------------------------------------------------------|
D|00-0h2----3352--023----3357--00-0h23----3352--023----3357~|
A|00-0h2----3352--023----3357--00-0h23----3352--023----3357~|
D|00-0h2----3352--023----3357--00-0h23----3352--023----3357~|

0:36 - 0:51
e|------------------------------------------------------------------------|
H|------------------------------------------------------------------------|
G|----14----------------------14----------------------14------------------|
D|121212121010101088888888121212121010101088888888121212121010101088888888|
A|121212121010101088888888121212121010101088888888121212121010101088888888|
D|121212121010101088888888121212121010101088888888121212121010101088888888|

e|--------------------------|
H|--------------------------|
G|--------------------------|
D|333333331010101010101010--|
A|333333331010101010101010--|
D|333333331010101010101010--|


0:52 - 1:10
first guitar
palm mute                             no palm mute
e|-----------------------------------------------------------------|
H|-----------------------------------------------------------------|
G|-----------------------------------------------------------------|
D|00-0h23----3352--00-0h23----3357-00-0h23XXXX3352-20--023XXXX3357~|
A|00-0h23----3352--00-0h23----3357-00-0h23XXXX3352-20--023XXXX3357~|
D|00-0h23----3352--00-0h23----3357-00-0h23XXXX3352-20--023XXXX3357~|

second guitar
e|-----------------------------------------------------------------|
H|-----------------------------------------------------------------|
G|-----------------------------------------------------------------|
D|00------------7\-00------------7~------------------------7~------|
A|00------------7\-00----------------------------------------------|
D|00------------7\-00----------------------------------------------|

1:11 - 1:44
e|------------------------------------------------------------------------|
H|------------------------------------------------------------------------|
G|----14----------------------14----------------------14------------------|
D|121212121010101088888888121212121010101088888888121212121010101088888888|
A|121212121010101088888888121212121010101088888888121212121010101088888888|
D|121212121010101088888888121212121010101088888888121212121010101088888888|

e|--------------------------|
H|--------------------------|
G|--------------------------|
D|333333331010101010101010--|
A|333333331010101010101010--|
D|333333331010101010101010--|

e|------------------------------------------------------------------------|
H|------------------------------------------------------------------------|
G|----14----------------------14----------------------14------------------|
D|121212121010101088888888121212121010101088888888121212121010101088888888|
A|121212121010101088888888121212121010101088888888121212121010101088888888|
D|121212121010101088888888121212121010101088888888121212121010101088888888|

e|--------------------------|
H|--------------------------|
G|--------------------------|
D|333333331010101010101010--|
A|333333331010101010101010--|
D|333333331010101010101010--|

1:45 - 2:09
e|-------------------------------------------------------------------------------|
H|-------------------------------------------------------------------------------|
G|-------------------------------------------------------------------------------|
D|000h8-000h3-000h8-00---000h8-000h3-000h8-00-------000h8-000h3-000h8-00---------|
A|000h8-000h3-000h8-00---000h8-000h3-000h8-00-------000h8-000h3-000h8-00---------|
D|000h8-000h3-000h8-00---000h8-000h3-000h8-00-3h5p3-000h8-000h3-000h8-00-3h5p3---|

e|----------------------------------------------------------------------------------|
H|----------------------------------------------------------------------------------|
G|----------------------------------------------------------------------------------|
D|000h8-000h3-000h8-00-----------0h8-000h3-000h8-00------------8-000h3-1010101010---|
A|000h8-000h3-000h8-00-----------0h8-000h3-000h8-00------------8-000h3-1010101010---|
D|000h8-000h3-000h8-00-3h5p3-----0h8-000h3-000h8-00-3h5p3------8-000h3-1010101010---|

2:10 - 2:13
e|-55-3-------|
H|3----1---66-|
G|-------3----|
D|------------|
A|------------|
D|------------|

2:14 -
e|------------------------------------------------------------------------|
H|------------------------------------------------------------------------|
G|----14----------------------14----------------------14------------------|
D|121212121010101088888888121212121010101088888888121212121010101088888888|
A|121212121010101088888888121212121010101088888888121212121010101088888888|
D|121212121010101088888888121212121010101088888888121212121010101088888888|

e|--------------------------|
H|--------------------------|
G|--------------------------|
D|333333331010101010101010--|
A|333333331010101010101010--|
D|333333331010101010101010--|

e|------------------------------------------------|
H|------------------------------------------------|
G|----14----------------------14------------------|
D|121212121010101088888888121212121010101088888888|
A|121212121010101088888888121212121010101088888888|
D|121212121010101088888888121212121010101088888888|

e|----------------------------|
H|----------------------------|
G|----------------------------|
D|333333331010101010101010--0-|
A|333333331010101010101010--0-|
D|333333331010101010101010--0-|
            
Submit corrections

comments powered by Disqus
↑ Back to top | Sacrety Tabs for Hallelujah. Lyrics for acoustic guitar and electric guitar. Tablatures and chords are parodies/interpretations of the original songs. You may use it for private study, scholarship, research or language learning purposes only