» » »

Sacrety, God Of Wonders Tabs (ver.1)

Artists:  A B C D E F G H I J K L M N O P Q R S T U V W X Y Z # 

God Of Wonders Tabs (ver.1)

Sacrety Tabs
Rating:
0/5 (0 votes)
God Of Wonders lessons Tabs too difficult? Try these video lessons and learn fast
                These are my tabs for the song "God Of Wonders" by Sacrety. Enjoy playing!


0:00 - 0:25
just keyboard + drums playing

0:26 - 0:38
e|----------------------------------------------------|
H|----------------------------------------------------|
G|777-99-XXXXX-555-55-------777-99-XXXXX-555-55-------|
D|777-99-XXXXX-555-55-02510~777-99-XXXXX-555-55-02510~|
A|555-77-XXXXX-333-33-02510~555-77-XXXXX-333-33-02510~|
D|-------XXXXX--------02510~-------XXXXX--------02510~|

0:39 - 0:50
just bass + drums playing

0:51 - 1:03
e|------------------------------------------|
H|------------------------------------------|
G|------------------------------------------|
D|---------------------------10109977997755-|
A|XX-55-5h73-33-33-3-55-5h73----------------|
D|------------------------------------------|

1:04 - 1:29
e|-----------------------------------------------------------|
H|-----------------------------------------8-888-888-888-888-|
G|-----------------------------------------7-777-777-777-777-|
D|5~-5555-0~0000-101010-101010-101010-1010\5-555-555-555-555-|
A|5~-5555-0~0000-101010-101010-101010-1010\5-----------------|
D|5~-5555-0~0000-101010-101010-101010-1010\5-----------------|

e|-----------------------------------------------------------|
H|-----------------------------------------8-888-888-888-888-|
G|-----------------------------------------7-777-777-777-777-|
D|5~-5555-0~0000-101010-101010-101010-1010\5-555-555-555-555-|
A|5~-5555-0~0000-101010-101010-101010-1010\5-----------------|
D|5~-5555-0~0000-101010-101010-101010-1010\5-----------------|

1:30 - 1:42
e|----------------------------------------------------|
H|----------------------------------------------------|
G|777-99-XXXXX-555-55-------777-99-XXXXX-555-55-------|
D|777-99-XXXXX-555-55-02510~777-99-XXXXX-555-55-02510~|
A|555-77-XXXXX-333-33-02510~555-77-XXXXX-333-33-02510~|
D|-------XXXXX--------02510~-------XXXXX--------02510~|

1:43 - 1:53
just bass + keyboard + drums playing

1:54 - 2:07
e|------------------------------------------|
H|------------------------------------------|
G|------------------------------------------|
D|---------------------------10109977997755-|
A|XX-55-5h73-33-33-3-55-5h73----------------|
D|------------------------------------------|

2:08 - 2:33
e|-----------------------------------------------------------|
H|-----------------------------------------8-888-888-888-888-|
G|-----------------------------------------7-777-777-777-777-|
D|5~-5555-0~0000-101010-101010-101010-1010\5-555-555-555-555-|
A|5~-5555-0~0000-101010-101010-101010-1010\5-----------------|
D|5~-5555-0~0000-101010-101010-101010-1010\5-----------------|

e|-----------------------------------------------------------|
H|-----------------------------------------8-888-888-888-888-|
G|-----------------------------------------7-777-777-777-777-|
D|5~-5555-0~0000-101010-101010-101010-1010\5-555-555-555-555-|
A|5~-5555-0~0000-101010-101010-101010-1010\5-----------------|
D|5~-5555-0~0000-101010-101010-101010-1010\5-----------------|

2:34 - 2:46
just keyboard + drums playing

2:47 - 3:11
e|--------------------------------------------------------------------------|
H|--------------------------------------------------------------------------|
G|--------------------------------------------------------------------------|
D|0-0-0-0-0-0-0-0-22225555777710101010-0-0-0-0-0-0-0-0-22225555777710101010-|
A|0-0-0-0-0-0-0-0----------------------0-0-0-0-0-0-0-0----------------------|
D|0-0-0-0-0-0-0-0----------------------0-0-0-0-0-0-0-0----------------------|

e|--------------------------------------------------------------------------|
H|--------------------------------------------------------------------------|
G|--------------------------------------------------------------------------|
D|0-0-0-0-0-0-0-0-22225555777710101010-0-0-0-0-0-0-0-0-22225555777710101010-|
A|0-0-0-0-0-0-0-0----------------------0-0-0-0-0-0-0-0----------------------|
D|0-0-0-0-0-0-0-0----------------------0-0-0-0-0-0-0-0----------------------|

3:12 - 3:37
e|--------------------------------------------------------12h1415~19171517~|
H|12~1512~12---------------------------------------------------------------|
G|----------141214~--------------11-12-----------11-12-14~-----------------|
D|---------------------------1214-----14~----1214--------------------------|
A|---------------------101214------------1214------------------------------|
D|-----------------1214----------------------------------------------------|

(keyboard continues solo)
e|--------------------------------|
H|--------------------------------|
G|--------------------------------|
D|1010101010101010-10109977997755-|
A|1010101010101010----------------|
D|1010101010101010----------------|

3:38 - 4:02
e|-----------------------------------------------------------|
H|-----------------------------------------8-888-888-888-888-|
G|-----------------------------------------7-777-777-777-777-|
D|5~-5555-0~0000-101010-101010-101010-1010\5-555-555-555-555-|
A|5~-5555-0~0000-101010-101010-101010-1010\5-----------------|
D|5~-5555-0~0000-101010-101010-101010-1010\5-----------------|

e|-----------------------------------------------------------|
H|-----------------------------------------8-888-888-888-888-|
G|-----------------------------------------7-777-777-777-777-|
D|5~-5555-0~0000-101010-101010-101010-1010\5-555-555-555-555-|
A|5~-5555-0~0000-101010-101010-101010-1010\5-----------------|
D|5~-5555-0~0000-101010-101010-101010-1010\5-----------------|

4:03 - 4:12
e|---------------------------------------|
H|---------------------------------------|
G|777-99-XXXXX-555-55-------777-99-XXXXX-|
D|777-99-XXXXX-555-55-02510~777-99-XXXXX-|
A|555-77-XXXXX-333-33-02510~555-77-XXXXX-|
D|-------XXXXX--------02510~-------XXXXX-|

4:13 - 4:21
just keyboard playing

MFJ
            

comments powered by Disqus
↑ Back to top | Sacrety Tabs for God Of Wonders. Lyrics for acoustic guitar and electric guitar. Tablatures and chords are parodies/interpretations of the original songs. You may use it for private study, scholarship, research or language learning purposes only