» » »

Sacrety, Fly Against The Wind Tabs (ver.1)

Artists:  A B C D E F G H I J K L M N O P Q R S T U V W X Y Z # 

Fly Against The Wind Tabs (ver.1)

Sacrety Tabs
Rating:
0/5 (0 votes)
Fly Against The Wind lessons Tabs too difficult? Try these video lessons and learn fast
                These are my tabs for the song " Fly Against The Wind" by Sacrety. Enjoy playing!


0:00 - 0:12
e|----------------------------------------|
H|----------------------------------------|
G|----------------------------------------|
D|----------------------------------------|
A|----5~------------------5~--------------|
D|0023--000-32-000-23-0023--000-32-000-23-|

e|----------------------------------------|
H|----------------------------------------|
G|----------------------------------------|
D|----------------------------------------|
A|----5~------------------5~--------------|
D|0023--000-32-000-23-0023--000-32-000-23-|

0:13 - 0:38
e|------------------------------------------------|
H|------------------------------------------------|
G|5h7-----5~-5h7----5~------5h7-----5~-7~-5~------|
D|--------5~--------5~--6~----------5~-7~-5~--6~--|
A|--------3~--------3~--6~----------3~-5~-3~--6~--|
D|---00---------00------6~-----00-------------6~--|

e|--------------------------------------------------------------|
H|--------------------------------------------------------------|
G|5h7-----------5~-5h7-------5~------5h7----------5~-7~-5~------|
D|--------------5~-----------5~--6~---------------5~-7~-5~--6~--|
A|--------------3~-----------3~--6~---------------3~-5~-3~--6~--|
D|---00-000-00--------00-000-----6~-----00-000-00-----------6~--|

        |p.m.|          |p.m.|             |p.m.|

0:39 - 0:50
just keyboard + drums playing

0:51 - 1:03
e|----------------------------------------------------------------|
H|----------------------------------------------------------------|
G|------------5555----------------------------5555----------------|
D|5555555555555555222222222222000055555555555555552222222222220000|
A|5555555555553333222222222222000055555555555533332222222222220000|
D|555555555555----2222222222220000555555555555----2222222222220000|

 |------------------------------p.m.------------------------------|

1:04 - 1:29
e|------------------------------------------------|
H|------------------------------------------------|
G|5h7-----5~-5h7----5~------5h7-----5~-7~-5~------|
D|--------5~--------5~--6~----------5~-7~-5~--6~--|
A|--------3~--------3~--6~----------3~-5~-3~--6~--|
D|---00---------00------6~-----00-------------6~--|

e|--------------------------------------------------------------|
H|--------------------------------------------------------------|
G|5h7-----------5~-5h7-------5~------5h7----------5~-7~-5~------|
D|--------------5~-----------5~--6~---------------5~-7~-5~--6~--|
A|--------------3~-----------3~--6~---------------3~-5~-3~--6~--|
D|---00-000-00--------00-000-----6~-----00-000-00-----------6~--|

        |p.m.|          |p.m.|             |p.m.|

1:30 - 1:41
just keyboard + drums playing

1:42 - 1:54
e|----------------------------------------------------------------|
H|----------------------------------------------------------------|
G|------------5555----------------------------5555----------------|
D|5555555555555555222222222222000055555555555555552222222222220000|
A|5555555555553333222222222222000055555555555533332222222222220000|
D|555555555555----2222222222220000555555555555----2222222222220000|

 |------------------------------p.m.------------------------------|

1:55 - 2:07
e|----------------------------------------|
H|----------------------------------------|
G|----------------------------------------|
D|----------------------------------------|
A|----5~------------------5~--------------|
D|0023--000-32-000-23-0023--000-32-000-23-|

e|----------------------------------------|
H|----------------------------------------|
G|----------------------------------------|
D|----------------------------------------|
A|----5~------------------5~--------------|
D|0023--000-32-000-23-0023--000-32-000-23-|

2:08 - 2:20
just keyboard + drums playing

2:21 - 2:32
e|----------------------------------------------------------------|
H|----------------------------------------------------------------|
G|------------5555----------------------------5555----------------|
D|5555555555555555222222222222000055555555555555552222222222220000|
A|5555555555553333222222222222000055555555555533332222222222220000|
D|555555555555----2222222222220000555555555555----2222222222220000|

 |------------------------------p.m.------------------------------|

2:33 - 2:52
e|----------------------------------------|
H|----------------------------------------|
G|----------------------------------------|
D|----------------------------------------|
A|----5~------------------5~--------------|
D|0023--000-32-000-23-0023--000-32-000-23-|

e|-------------------------------------------|
H|-------------------------------------------|
G|-------------------------------------------|
D|---------------------------------------0~~-|
A|----5~------------------5~-------------0~~-|
D|0023--000-32-000-23-0023--000-32-000-230~~-|

2:53 - 3:23 (Keyboard)
e|7~-6-7~-9-11~-14-16~-14-7~-97-16~-14-11~-14-9~|
H|----------------------------------------------|
G|----------------------------------------------|
D|----------------------------------------------|
A|----------------------------------------------|
D|----------------------------------------------|

MFJ
            
Submit corrections

comments powered by Disqus
↑ Back to top | Sacrety Tabs for Fly Against The Wind. Lyrics for acoustic guitar and electric guitar. Tablatures and chords are parodies/interpretations of the original songs. You may use it for private study, scholarship, research or language learning purposes only