» » »

Sacrety, Bounce Move Shout Tabs (ver.1)

Artists:  A B C D E F G H I J K L M N O P Q R S T U V W X Y Z # 

Bounce Move Shout Tabs (ver.1)

Sacrety Tabs
 Rating:
4/5 (4 votes)
Bounce Move Shout lessons Tabs too difficult? Try these video lessons and learn fast
                These are my tabs for the song "Bounce Move Shout" by Sacrety. Enjoy playing!


0:00 - 0:17
e|--------------------------------------------------------------------|
H|---3--------------3-------------------3--------------3--------------|
G|--------------------------------------------------------------------|
D|1p0-0h1p0-XX-0h1p0-0135p01h3p1p0-0h1p0-0h1p0-XX-0h1p0-0135p01h3p1p0-|
A|1p0-0h1p0-XX-0h1p0-0135p01h3p1p0-0h1p0-0h1p0-XX-0h1p0-0135p01h3p1p0-|
D|1p0-0h1p0-XX-0h1p0-0135p01h3p1p0-0h1p0-0h1p0-XX-0h1p0-0135p01h3p1p0-|


e|--------------------------------------------------------------------|
H|---3--------------3-------------------3--------------3--------------|
G|--------------------------------------------------------------------|
D|1p0-0h1p0-XX-0h1p0-0135p01h3p1p0-0h1p0-0h1p0-XX-0h1p0-0135p01h3p1p0-|
A|1p0-0h1p0-XX-0h1p0-0135p01h3p1p0-0h1p0-0h1p0-XX-0h1p0-0135p01h3p1p0-|
D|1p0-0h1p0-XX-0h1p0-0135p01h3p1p0-0h1p0-0h1p0-XX-0h1p0-0135p01h3p1p0-|

0:18 - 0:34 (Bass)
G|----------------------------------------------------------------|
D|----------------------------------------------------------------|
A|----------------------------------------------------------------|
D|0000000033333333555555550000000000000000333333335555555500000000|

0:35 - 0:43
e|--------------------------------------------------------------------|
H|---3--------------3-------------------3--------------3--------------|
G|--------------------------------------------------------------------|
D|1p0-0h1p0-XX-0h1p0-0135p01h3p1p0-0h1p0-0h1p0-XX-0h1p0-0135p01h3p1p0-|
A|1p0-0h1p0-XX-0h1p0-0135p01h3p1p0-0h1p0-0h1p0-XX-0h1p0-0135p01h3p1p0-|
D|1p0-0h1p0-XX-0h1p0-0135p01h3p1p0-0h1p0-0h1p0-XX-0h1p0-0135p01h3p1p0-|

0:44 - 1:00 (Bass)
G|-----------------------------------------------------------|
D|-----------------------------------------------------------|
A|-----------------------------------------------------------|
D|00000000333333335555555500000000000000003333333355555555---|

1:01 - 1:17
e|------------------------------------------------------------|
H|------------------------------------------------------------|
G|777799------------------------777799------------------------|
D|777799-555555-777799-00000000-777799-555555-777799-00000000-|
A|555577-555555-777799-00000000-555577-555555-777799-00000000-|
D|0000---555555-777799-00000000-0000---555555-777799-00000000-|

1:18 - 1:26
e|--------------------------------------------------------------------|
H|---3--------------3-------------------3--------------3--------------|
G|--------------------------------------------------------------------|
D|1p0-0h1p0-XX-0h1p0-0135p01h3p1p0-0h1p0-0h1p0-XX-0h1p0-0135p01h3p1p0-|
A|1p0-0h1p0-XX-0h1p0-0135p01h3p1p0-0h1p0-0h1p0-XX-0h1p0-0135p01h3p1p0-|
D|1p0-0h1p0-XX-0h1p0-0135p01h3p1p0-0h1p0-0h1p0-XX-0h1p0-0135p01h3p1p0-|

1:27 - 1:44 (Bass)
G|----------------------------------------------------------------|
D|----------------------------------------------------------------|
A|----------------------------------------------------------------|
D|0000000033333333555555550000000000000000333333335555555577777777|

1:45 - 2:19
e|------------------------------------------------------------|
H|------------------------------------------------------------|
G|777799------------------------777799------------------------|
D|777799-555555-777799-00000000-777799-555555-777799-00000000-|
A|555577-555555-777799-00000000-555577-555555-777799-00000000-|
D|0000---555555-777799-00000000-0000---555555-777799-00000000-|

e|------------------------------------------------------------|
H|------------------------------------------------------------|
G|777799------------------------777799------------------------|
D|777799-555555-777799-00000000-777799-555555-777799-00000000-|
A|555577-555555-777799-00000000-555577-555555-777799-00000000-|
D|0000---555555-777799-00000000-0000---555555-777799-00000000-|

2:20 - 2:38
e|--------------------------------------------------------------------|
H|---3--------------3-------------------3--------------3--------------|
G|--------------------------------------------------------------------|
D|1p0-0h1p0-XX-0h1p0-0135p01h3p1p0-0h1p0-0h1p0-XX-0h1p0-0135p01h3p1p0-|
A|1p0-0h1p0-XX-0h1p0-0135p01h3p1p0-0h1p0-0h1p0-XX-0h1p0-0135p01h3p1p0-|
D|1p0-0h1p0-XX-0h1p0-0135p01h3p1p0-0h1p0-0h1p0-XX-0h1p0-0135p01h3p1p0-|

e|----------------------------------------------------------------------|
H|---3--------------3-------------------3--------------3----------------|
G|----------------------------------------------------------------------|
D|1p0-0h1p0-XX-0h1p0-0135p01h3p1p0-0h1p0-0h1p0-XX-0h1p0-0135p01h3p1p0---|
A|1p0-0h1p0-XX-0h1p0-0135p01h3p1p0-0h1p0-0h1p0-XX-0h1p0-0135p01h3p1p0---|
D|1p0-0h1p0-XX-0h1p0-0135p01h3p1p0-0h1p0-0h1p0-XX-0h1p0-0135p01h3p1p0---|

2:39 - 3:12
e|------------------------------------------------------------|
H|------------------------------------------------------------|
G|777799------------------------777799------------------------|
D|777799-555555-777799-00000000-777799-555555-777799-00000000-|
A|555577-555555-777799-00000000-555577-555555-777799-00000000-|
D|0000---555555-777799-00000000-0000---555555-777799-00000000-|

e|------------------------------------------------------------|
H|------------------------------------------------------------|
G|777799------------------------777799------------------------|
D|777799-555555-777799-00000000-777799-555555-777799-00000000-|
A|555577-555555-777799-00000000-555577-555555-777799-00000000-|
D|0000---555555-777799-00000000-0000---555555-777799-00000000-|

3:13 - 3:32
e|----------------------------------------------------------------------|
H|---3--------------3-------------------3--------------3----------------|
G|----------------------------------------------------------------------|
D|1p0-0h1p0-XX-0h1p0-0135p01h3p1p0-0h1p0-0h1p0-XX-0h1p0-0135p01h3p1p0~~~|
A|1p0-0h1p0-XX-0h1p0-0135p01h3p1p0-0h1p0-0h1p0-XX-0h1p0-0135p01h3p1p0~~~|
D|1p0-0h1p0-XX-0h1p0-0135p01h3p1p0-0h1p0-0h1p0-XX-0h1p0-0135p01h3p1p0~~~|

MFJ
            
Submit corrections

comments powered by Disqus
↑ Back to top | Sacrety Tabs for Bounce Move Shout. Lyrics for acoustic guitar and electric guitar. Tablatures and chords are parodies/interpretations of the original songs. You may use it for private study, scholarship, research or language learning purposes only